  0
SECTION
  2
HEADER
  9
$ACADVER
  1
AC1012
  9
$DWGCODEPAGE
  3
dos850
  9
$INSBASE
 10
0.0
 20
0.0
 30
0.0
  9
$EXTMIN
 10
3.496
 20
2.698
 30
0.0
  9
$EXTMAX
 10
12.114
 20
10.384
 30
0.0
  9
$LIMMIN
 10
0.0
 20
0.0
  9
$LIMMAX
 10
0.0
 20
0.0
  9
$ORTHOMODE
 70
     0
  9
$REGENMODE
 70
     1
  9
$FILLMODE
 70
     1
  9
$QTEXTMODE
 70
     0
  9
$MIRRTEXT
 70
     1
  9
$DRAGMODE
 70
     2
  9
$LTSCALE
 40
1.0
  9
$OSMODE
 70
     0
  9
$ATTMODE
 70
     1
  9
$TEXTSIZE
 40
0.2
  9
$TRACEWID
 40
0.05
  9
$TEXTSTYLE
  7
STANDARD
  9
$CLAYER
  8
0
  9
$CELTYPE
  6
CONTINUOUS
  9
$CECOLOR
 62
   256
  9
$CELTSCALE
 40
1.0
  9
$DELOBJ
 70
     1
  9
$DISPSILH
 70
     0
  9
$DIMSCALE
 40
1.0
  9
$DIMASZ
 40
0.18
  9
$DIMEXO
 40
0.0625
  9
$DIMDLI
 40
0.38
  9
$DIMRND
 40
0.0
  9
$DIMDLE
 40
0.0
  9
$DIMEXE
 40
0.18
  9
$DIMTP
 40
0.0
  9
$DIMTM
 40
0.0
  9
$DIMTXT
 40
0.18
  9
$DIMCEN
 40
0.09
  9
$DIMTSZ
 40
0.0
  9
$DIMTOL
 70
     0
  9
$DIMLIM
 70
     0
  9
$DIMTIH
 70
     1
  9
$DIMTOH
 70
     1
  9
$DIMSE1
 70
     0
  9
$DIMSE2
 70
     0
  9
$DIMTAD
 70
     0
  9
$DIMZIN
 70
     0
  9
$DIMBLK
  1

  9
$DIMASO
 70
     1
  9
$DIMSHO
 70
     1
  9
$DIMPOST
  1

  9
$DIMAPOST
  1

  9
$DIMALT
 70
     0
  9
$DIMALTD
 70
     2
  9
$DIMALTF
 40
25.4
  9
$DIMLFAC
 40
1.0
  9
$DIMTOFL
 70
     0
  9
$DIMTVP
 40
0.0
  9
$DIMTIX
 70
     0
  9
$DIMSOXD
 70
     0
  9
$DIMSAH
 70
     0
  9
$DIMBLK1
  1

  9
$DIMBLK2
  1

  9
$DIMSTYLE
  2
STANDARD
  9
$DIMCLRD
 70
     0
  9
$DIMCLRE
 70
     0
  9
$DIMCLRT
 70
     0
  9
$DIMTFAC
 40
1.0
  9
$DIMGAP
 40
0.09
  9
$DIMJUST
 70
     0
  9
$DIMSD1
 70
     0
  9
$DIMSD2
 70
     0
  9
$DIMTOLJ
 70
     1
  9
$DIMTZIN
 70
     0
  9
$DIMALTZ
 70
     0
  9
$DIMALTTZ
 70
     0
  9
$DIMFIT
 70
     3
  9
$DIMUPT
 70
     0
  9
$DIMUNIT
 70
     2
  9
$DIMDEC
 70
     4
  9
$DIMTDEC
 70
     4
  9
$DIMALTU
 70
     2
  9
$DIMALTTD
 70
     2
  9
$DIMTXSTY
  7
STANDARD
  9
$DIMAUNIT
 70
     0
  9
$LUNITS
 70
     2
  9
$LUPREC
 70
     4
  9
$SKETCHINC
 40
0.1
  9
$FILLETRAD
 40
0.0
  9
$AUNITS
 70
     0
  9
$AUPREC
 70
     0
  9
$MENU
  1
acad
  9
$ELEVATION
 40
0.0
  9
$PELEVATION
 40
0.0
  9
$THICKNESS
 40
0.0
  9
$LIMCHECK
 70
     0
  9
$BLIPMODE
 70
     1
  9
$CHAMFERA
 40
0.0
  9
$CHAMFERB
 40
0.0
  9
$CHAMFERC
 40
0.0
  9
$CHAMFERD
 40
0.0
  9
$SKPOLY
 70
     0
  9
$TDCREATE
 40
0.000000000
  9
$TDUPDATE
 40
0.000000000
  9
$TDINDWG
 40
0.0000000000
  9
$TDUSRTIMER
 40
0.0000000000
  9
$USRTIMER
 70
     1
  9
$ANGBASE
 50
0.0
  9
$ANGDIR
 70
     0
  9
$PDMODE
 70
     0
  9
$PDSIZE
 40
0.0
  9
$PLINEWID
 40
0.0
  9
$COORDS
 70
     0
  9
$SPLFRAME
 70
     0
  9
$SPLINETYPE
 70
     6
  9
$SPLINESEGS
 70
     8
  9
$ATTDIA
 70
     0
  9
$ATTREQ
 70
     1
  9
$HANDLING
 70
     1
  9
$HANDSEED
  5
B66
  9
$SURFTAB1
 70
     6
  9
$SURFTAB2
 70
     6
  9
$SURFTYPE
 70
     6
  9
$SURFU
 70
     6
  9
$SURFV
 70
     6
  9
$UCSNAME
  2

  9
$UCSORG
 10
0.0
 20
0.0
 30
0.0
  9
$UCSXDIR
 10
1.0
 20
0.0
 30
0.0
  9
$UCSYDIR
 10
0.0
 20
1.0
 30
0.0
  9
$PUCSNAME
  2

  9
$PUCSORG
 10
0.0
 20
0.0
 30
0.0
  9
$PUCSXDIR
 10
1.0
 20
0.0
 30
0.0
  9
$PUCSYDIR
 10
0.0
 20
1.0
 30
0.0
  9
$USERI1
 70
     0
  9
$USERI2
 70
     0
  9
$USERI3
 70
     0
  9
$USERI4
 70
     0
  9
$USERI5
 70
     0
  9
$USERR1
 40
0.0
  9
$USERR2
 40
0.0
  9
$USERR3
 40
0.0
  9
$USERR4
 40
0.0
  9
$USERR5
 40
0.0
  9
$WORLDVIEW
 70
     1
  9
$SHADEDGE
 70
     3
  9
$SHADEDIF
 70
    70
  9
$TILEMODE
 70
     1
  9
$MAXACTVP
 70
    16
  9
$PINSBASE
 10
0.0
 20
0.0
 30
0.0
  9
$PLIMCHECK
 70
     0
  9
$PEXTMIN
 10
1.000000E+20
 20
1.000000E+20
 30
1.000000E+20
  9
$PEXTMAX
 10
-1.000000E+20
 20
-1.000000E+20
 30
-1.000000E+20
  9
$PLIMMIN
 10
0.0
 20
0.0
  9
$PLIMMAX
 10
12.0
 20
9.0
  9
$UNITMODE
 70
     0
  9
$VISRETAIN
 70
     0
  9
$PLINEGEN
 70
     1
  9
$PSLTSCALE
 70
     0
  9
$TREEDEPTH
 70
  3020
  9
$PICKSTYLE
 70
     1
  9
$CMLSTYLE
  2
Standard
  9
$CMLJUST
 70
     0
  9
$CMLSCALE
 40
1.0
  9
$SAVEIMAGES
 70
     0
  0
ENDSEC
  0
SECTION
  2
CLASSES
  0
CLASS
  1
LWPOLYLINE
  2
AcDbPolyline
  3
"AutoCAD"
 90
        0
280
     0
281
     1
  0
CLASS
  1
IMAGE
  2
AcDbRasterImage
  3
ISM
 90
      127
280
     0
281
     1
  0
CLASS
  1
OLE2FRAME
  2
AcDbOle2Frame
  3
""
 90
        0
280
     0
281
     1
  0
CLASS
  1
HATCH
  2
AcDbHatch
  3
"ACAD_SEDONA"
 90
        0
280
     0
281
     1
  0
CLASS
  1
DICTIONARYVAR
  2
AcDbDictionaryVar
  3
"AutoCAD"
 90
        0
280
     0
281
     0
  0
CLASS
  1
RASTERVARIABLES
  2
AcDbRasterVariables
  3
ISM
 90
        0
280
     0
281
     0
  0
CLASS
  1
IMAGEDEF
  2
AcDbRasterImageDef
  3
ISM
 90
        0
280
     0
281
     0
  0
CLASS
  1
IMAGEDEF_REACTOR
  2
AcDbRasterImageDefReactor
  3
ISM
 90
        1
280
     0
281
     0
  0
CLASS
  1
IDBUFFER
  2
AcDbIdBuffer
  3
"Acad"
 90
        0
280
     0
281
     0
  0
CLASS
  1
SPATIAL_FILTER
  2
AcDbSpatialFilter
  3
"Acad"
 90
        0
280
     0
281
     0
  0
CLASS
  1
XRECORD
  2
AcDbXrecord
  3
"<Built In>"
 90
        0
280
     0
281
     0
  0
CLASS
  1
SORTENTSTABLE
  2
AcDbSortentsTable
  3
"AutoCAD"
 90
        0
280
     0
281
     0
  0
CLASS
  1
LAYER_INDEX
  2
AcDbLayerIndex
  3
"Acad"
 90
        0
280
     0
281
     0
  0
CLASS
  1
SPATIAL_INDEX
  2
AcDbSpatialIndex
  3
"Acad"
 90
        0
280
     0
281
     0
  0
CLASS
  1
OBJECT_PTR
  2
CAseDLPNTableRecord
  3
"ASE-LPNTableRecord"
 90
        1
280
     0
281
     0
  0
CLASS
  1
LAYOUT
  2
AcDbLayout
  3
"AutoCAD 2000"
 90
        1
280
     0
281
     0
  0
CLASS
  1
PLOTSETTINGS
  2
AcDbPlotSettings
  3
"AutoCAD 2000"
 90
        1
280
     0
281
     0
  0
CLASS
  1
ACDBDICTIONARYWDFLT
  2
AcDbDictionaryWithDefault
  3
"AutoCAD 2000"
 90
        1
280
     0
281
     0
  0
CLASS
  1
ACDBPLACEHOLDER
  2
AcDbPlaceHolder
  3
"AutoCAD 2000"
 90
        1
280
     0
281
     0
  0
CLASS
  1
VBA_PROJECT
  2
AcDbVbaProject
  3
"acadvba"
 90
        1
280
     0
281
     0
  0
CLASS
  1
WIPEOUT
  2
AcDbWipeout
  3
WipeOut|AutoCAD Express Tool|expresstools@autodesk.com
 90
      127
280
     0
281
     1
  0
CLASS
  1
WIPEOUTVARIABLES
  2
AcDbWipeoutVariables
  3
WipeOut|AutoCAD Express Tool|expresstools@autodesk.com
 90
        0
280
     0
281
     0
  0
CLASS
  1
RTEXT
  2
RText
  3
RText|AutoCAD Express Tool|expresstools@autodesk.com
 90
        0
280
     0
281
     1
  0
CLASS
  1
ARCALIGNEDTEXT
  2
AcDbArcAlignedText
  3
ATEXT|AutoCAD Express Tool|expresstools@autodesk.com
 90
        0
280
     0
281
     1
  0
ENDSEC
  0
SECTION
  2
TABLES
  0
TABLE
  2
VPORT
  5
7
100
AcDbSymbolTable
 70
     1
  0
VPORT
  5
15
100
AcDbSymbolTableRecord
100
AcDbViewportTableRecord
  2
*ACTIVE
 70
     0
 10
0.0
 20
0.0
 11
1.0
 21
1.0
 12
6.591288
 22
4.579184
 13
0.0
 23
0.0
 14
1.0
 24
1.0
 15
0.0
 25
0.0
 16
0.0
 26
0.0
 36
1.0
 17
0.0
 27
0.0
 37
0.0
 40
9.158369
 41
0.688564
 42
50.0
 43
0.0
 44
0.0
 50
0.0
 51
0.0
 71
     0
 72
   100
 73
     1
 74
     1
 75
     0
 76
     0
 77
     0
 78
     0
  0
ENDTAB
  0
TABLE
  2
LTYPE
  5
4
100
AcDbSymbolTable
 70
     3
  0
LTYPE
  5
11
100
AcDbSymbolTableRecord
100
AcDbLinetypeTableRecord
  2
BYBLOCK
 70
    64
  3

 72
    65
 73
     0
 40
0.0
  0
LTYPE
  5
12
100
AcDbSymbolTableRecord
100
AcDbLinetypeTableRecord
  2
BYLAYER
 70
    64
  3

 72
    65
 73
     0
 40
0.0
  0
LTYPE
  5
13
100
AcDbSymbolTableRecord
100
AcDbLinetypeTableRecord
  2
CONTINUOUS
 70
    64
  3
Solid line
 72
    65
 73
     0
 40
0.0
  0
ENDTAB
  0
TABLE
  2
LAYER
  5
2
100
AcDbSymbolTable
 70
     7
  0
LAYER
  5
14
100
AcDbSymbolTableRecord
100
AcDbLayerTableRecord
  2
0
 70
     0
 62
     7
  6
CONTINUOUS
  0
LAYER
  5
1D
100
AcDbSymbolTableRecord
100
AcDbLayerTableRecord
  2
TOPLAYER
 70
     0
 62
     1
  6
CONTINUOUS
  0
LAYER
  5
1E
100
AcDbSymbolTableRecord
100
AcDbLayerTableRecord
  2
TOPPASTE
 70
     0
 62
     8
  6
CONTINUOUS
  0
LAYER
  5
1F
100
AcDbSymbolTableRecord
100
AcDbLayerTableRecord
  2
BOTTOMPASTE
 70
     0
 62
    16
  6
CONTINUOUS
  0
LAYER
  5
20
100
AcDbSymbolTableRecord
100
AcDbLayerTableRecord
  2
TOPSOLDER
 70
     0
 62
   216
  6
CONTINUOUS
  0
LAYER
  5
21
100
AcDbSymbolTableRecord
100
AcDbLayerTableRecord
  2
BOTTOMSOLDER
 70
     0
 62
     6
  6
CONTINUOUS
  0
LAYER
  5
22
100
AcDbSymbolTableRecord
100
AcDbLayerTableRecord
  2
MECHANICAL1
 70
     0
 62
     6
  6
CONTINUOUS
  0
ENDTAB
  0
TABLE
  2
STYLE
  5
3
100
AcDbSymbolTable
 70
     1
  0
STYLE
  5
17
100
AcDbSymbolTableRecord
100
AcDbTextStyleTableRecord
  2
STANDARD
 70
     0
 40
0.0
 41
1.0
 50
0.0
 71
     0
 42
0.0
  3
txt
  4

  0
ENDTAB
  0
TABLE
  2
VIEW
  5
5
100
AcDbSymbolTable
 70
     0
  0
ENDTAB
  0
TABLE
  2
UCS
  5
6
100
AcDbSymbolTable
 70
     0
  0
ENDTAB
  0
TABLE
  2
APPID
  5
8
100
AcDbSymbolTable
 70
     1
  0
APPID
  5
16
100
AcDbSymbolTableRecord
100
AcDbRegAppTableRecord
  2
ACAD
 70
     0
  0
ENDTAB
  0
TABLE
  2
DIMSTYLE
  5
9
100
AcDbSymbolTable
 70
     1
  0
DIMSTYLE
105
18
100
AcDbSymbolTableRecord
100
AcDbDimStyleTableRecord
  2
STANDARD
 70
     0
  3

  4

  5

  6

  7

 40
1.0
 41
0.18
 42
0.0625
 43
0.38
 44
0.18
 45
0.0
 46
0.0
 47
0.0
 48
0.0
 71
     0
 72
     0
 73
     1
 74
     1
 75
     0
 76
     0
 77
     0
 78
     0
140
0.18
141
0.09
142
0.0
143
25.4
144
1.0
145
0.0
146
1.0
147
0.09
170
     0
171
     2
172
     0
173
     0
174
     0
175
     0
176
     0
177
     0
178
     0
270
     2
271
     4
272
     4
273
     2
274
     2
275
     0
280
     0
281
     0
282
     0
283
     1
284
     0
285
     0
286
     0
287
     0
288
     0
340
17
  0
ENDTAB
  0
TABLE
  2
BLOCK_RECORD
  5
1
100
AcDbSymbolTable
 70
     0
  0
BLOCK_RECORD
  5
A
100
AcDbSymbolTableRecord
100
AcDbBlockTableRecord
  2
*MODEL_SPACE
  0
BLOCK_RECORD
  5
B
100
AcDbSymbolTableRecord
100
AcDbBlockTableRecord
  2
*PAPER_SPACE
  0
ENDTAB
  0
ENDSEC
  0
SECTION
  2
BLOCKS
  0
BLOCK
  5
D
100
AcDbEntity
  8
0
100
AcDbBlockBegin
  2
*MODEL_SPACE
 70
     0
 10
0.0
 20
0.0
 30
0.0
  3
*MODEL_SPACE
  1

  0
ENDBLK
  5
E
100
AcDbEntity
  8
0
100
AcDbBlockEnd
  0
BLOCK
  5
F
100
AcDbEntity
 67
     1
  8
0
100
AcDbBlockBegin
  2
*PAPER_SPACE
 70
     0
 10
0.0
 20
0.0
 30
0.0
  3
*PAPER_SPACE
  1

  0
ENDBLK
  5
10
100
AcDbEntity
 67
     1
  8
0
100
AcDbBlockEnd
  0
ENDSEC
  0
SECTION
  2
ENTITIES
  0
POLYLINE
  5
23
100
AcDbEntity
  8
TOPLAYER
100
AcDb2dPolyline
 66
     1
 10
0.0
 20
0.0
 30
0.0
 40
0.008
 41
0.008
 75
     8
  0
VERTEX
  5
24
100
AcDbEntity
  8
TOPLAYER
100
AcDbVertex
100
AcDb2dVertex
 10
4.8515
 20
5.428928
 30
0.0
  0
VERTEX
  5
25
100
AcDbEntity
  8
TOPLAYER
100
AcDbVertex
100
AcDb2dVertex
 10
4.851785
 20
5.381751
 30
0.0
  0
SEQEND
  5
26
100
AcDbEntity
  8
0
  0
POLYLINE
  5
27
100
AcDbEntity
  8
TOPLAYER
100
AcDb2dPolyline
 66
     1
 10
0.0
 20
0.0
 30
0.0
 70
     1
 40
0.004
 41
0.004
 75
     8
  0
VERTEX
  5
28
100
AcDbEntity
  8
TOPLAYER
100
AcDbVertex
100
AcDb2dVertex
 10
4.8495
 20
5.428928
 30
0.0
 42
1.0
  0
VERTEX
  5
29
100
AcDbEntity
  8
TOPLAYER
100
AcDbVertex
100
AcDb2dVertex
 10
4.8535
 20
5.428928
 30
0.0
 42
1.0
  0
SEQEND
  5
2A
100
AcDbEntity
  8
0
  0
POLYLINE
  5
2B
100
AcDbEntity
  8
TOPLAYER
100
AcDb2dPolyline
 66
     1
 10
0.0
 20
0.0
 30
0.0
 70
     1
 40
0.004
 41
0.004
 75
     8
  0
VERTEX
  5
2C
100
AcDbEntity
  8
TOPLAYER
100
AcDbVertex
100
AcDb2dVertex
 10
4.849785
 20
5.381751
 30
0.0
 42
1.0
  0
VERTEX
  5
2D
100
AcDbEntity
  8
TOPLAYER
100
AcDbVertex
100
AcDb2dVertex
 10
4.853785
 20
5.381751
 30
0.0
 42
1.0
  0
SEQEND
  5
2E
100
AcDbEntity
  8
0
  0
POLYLINE
  5
2F
100
AcDbEntity
  8
TOPLAYER
100
AcDb2dPolyline
 66
     1
 10
0.0
 20
0.0
 30
0.0
 40
0.008
 41
0.008
 75
     8
  0
VERTEX
  5
30
100
AcDbEntity
  8
TOPLAYER
100
AcDbVertex
100
AcDb2dVertex
 10
4.850715
 20
8.61825
 30
0.0
  0
VERTEX
  5
31
100
AcDbEntity
  8
TOPLAYER
100
AcDbVertex
100
AcDb2dVertex
 10
4.851
 20
8.571073
 30
0.0
  0
SEQEND
  5
32
100
AcDbEntity
  8
0
  0
POLYLINE
  5
33
100
AcDbEntity
  8
TOPLAYER
100
AcDb2dPolyline
 66
     1
 10
0.0
 20
0.0
 30
0.0
 70
     1
 40
0.004
 41
0.004
 75
     8
  0
VERTEX
  5
34
100
AcDbEntity
  8
TOPLAYER
100
AcDbVertex
100
AcDb2dVertex
 10
4.848715
 20
8.61825
 30
0.0
 42
1.0
  0
VERTEX
  5
35
100
AcDbEntity
  8
TOPLAYER
100
AcDbVertex
100
AcDb2dVertex
 10
4.852715
 20
8.61825
 30
0.0
 42
1.0
  0
SEQEND
  5
36
100
AcDbEntity
  8
0
  0
POLYLINE
  5
37
100
AcDbEntity
  8
TOPLAYER
100
AcDb2dPolyline
 66
     1
 10
0.0
 20
0.0
 30
0.0
 70
     1
 40
0.004
 41
0.004
 75
     8
  0
VERTEX
  5
38
100
AcDbEntity
  8
TOPLAYER
100
AcDbVertex
100
AcDb2dVertex
 10
4.849
 20
8.571073
 30
0.0
 42
1.0
  0
VERTEX
  5
39
100
AcDbEntity
  8
TOPLAYER
100
AcDbVertex
100
AcDb2dVertex
 10
4.853
 20
8.571073
 30
0.0
 42
1.0
  0
SEQEND
  5
3A
100
AcDbEntity
  8
0
  0
POLYLINE
  5
3B
100
AcDbEntity
  8
TOPLAYER
100
AcDb2dPolyline
 66
     1
 10
0.0
 20
0.0
 30
0.0
 40
0.008
 41
0.008
 75
     8
  0
VERTEX
  5
3C
100
AcDbEntity
  8
TOPLAYER
100
AcDbVertex
100
AcDb2dVertex
 10
11.148215
 20
5.381751
 30
0.0
  0
VERTEX
  5
3D
100
AcDbEntity
  8
TOPLAYER
100
AcDbVertex
100
AcDb2dVertex
 10
11.1485
 20
5.428928
 30
0.0
  0
SEQEND
  5
3E
100
AcDbEntity
  8
0
  0
POLYLINE
  5
3F
100
AcDbEntity
  8
TOPLAYER
100
AcDb2dPolyline
 66
     1
 10
0.0
 20
0.0
 30
0.0
 70
     1
 40
0.004
 41
0.004
 75
     8
  0
VERTEX
  5
40
100
AcDbEntity
  8
TOPLAYER
100
AcDbVertex
100
AcDb2dVertex
 10
11.146215
 20
5.381751
 30
0.0
 42
1.0
  0
VERTEX
  5
41
100
AcDbEntity
  8
TOPLAYER
100
AcDbVertex
100
AcDb2dVertex
 10
11.150215
 20
5.381751
 30
0.0
 42
1.0
  0
SEQEND
  5
42
100
AcDbEntity
  8
0
  0
POLYLINE
  5
43
100
AcDbEntity
  8
TOPLAYER
100
AcDb2dPolyline
 66
     1
 10
0.0
 20
0.0
 30
0.0
 70
     1
 40
0.004
 41
0.004
 75
     8
  0
VERTEX
  5
44
100
AcDbEntity
  8
TOPLAYER
100
AcDbVertex
100
AcDb2dVertex
 10
11.1465
 20
5.428928
 30
0.0
 42
1.0
  0
VERTEX
  5
45
100
AcDbEntity
  8
TOPLAYER
100
AcDbVertex
100
AcDb2dVertex
 10
11.1505
 20
5.428928
 30
0.0
 42
1.0
  0
SEQEND
  5
46
100
AcDbEntity
  8
0
  0
POLYLINE
  5
47
100
AcDbEntity
  8
TOPLAYER
100
AcDb2dPolyline
 66
     1
 10
0.0
 20
0.0
 30
0.0
 40
0.008
 41
0.008
 75
     8
  0
VERTEX
  5
48
100
AcDbEntity
  8
TOPLAYER
100
AcDbVertex
100
AcDb2dVertex
 10
11.149
 20
8.571073
 30
0.0
  0
VERTEX
  5
49
100
AcDbEntity
  8
TOPLAYER
100
AcDbVertex
100
AcDb2dVertex
 10
11.149285
 20
8.61825
 30
0.0
  0
SEQEND
  5
4A
100
AcDbEntity
  8
0
  0
POLYLINE
  5
4B
100
AcDbEntity
  8
TOPLAYER
100
AcDb2dPolyline
 66
     1
 10
0.0
 20
0.0
 30
0.0
 70
     1
 40
0.004
 41
0.004
 75
     8
  0
VERTEX
  5
4C
100
AcDbEntity
  8
TOPLAYER
100
AcDbVertex
100
AcDb2dVertex
 10
11.147
 20
8.571073
 30
0.0
 42
1.0
  0
VERTEX
  5
4D
100
AcDbEntity
  8
TOPLAYER
100
AcDbVertex
100
AcDb2dVertex
 10
11.151
 20
8.571073
 30
0.0
 42
1.0
  0
SEQEND
  5
4E
100
AcDbEntity
  8
0
  0
POLYLINE
  5
4F
100
AcDbEntity
  8
TOPLAYER
100
AcDb2dPolyline
 66
     1
 10
0.0
 20
0.0
 30
0.0
 70
     1
 40
0.004
 41
0.004
 75
     8
  0
VERTEX
  5
50
100
AcDbEntity
  8
TOPLAYER
100
AcDbVertex
100
AcDb2dVertex
 10
11.147285
 20
8.61825
 30
0.0
 42
1.0
  0
VERTEX
  5
51
100
AcDbEntity
  8
TOPLAYER
100
AcDbVertex
100
AcDb2dVertex
 10
11.151285
 20
8.61825
 30
0.0
 42
1.0
  0
SEQEND
  5
52
100
AcDbEntity
  8
0
  0
POLYLINE
  5
53
100
AcDbEntity
  8
TOPLAYER
100
AcDb2dPolyline
 66
     1
 10
0.0
 20
0.0
 30
0.0
 40
0.008
 41
0.008
 75
     8
  0
VERTEX
  5
54
100
AcDbEntity
  8
TOPLAYER
100
AcDbVertex
100
AcDb2dVertex
 10
8.0
 20
9.68
 30
0.0
  0
VERTEX
  5
55
100
AcDbEntity
  8
TOPLAYER
100
AcDbVertex
100
AcDb2dVertex
 10
9.773056
 20
9.68
 30
0.0
  0
SEQEND
  5
56
100
AcDbEntity
  8
0
  0
POLYLINE
  5
57
100
AcDbEntity
  8
TOPLAYER
100
AcDb2dPolyline
 66
     1
 10
0.0
 20
0.0
 30
0.0
 70
     1
 40
0.004
 41
0.004
 75
     8
  0
VERTEX
  5
58
100
AcDbEntity
  8
TOPLAYER
100
AcDbVertex
100
AcDb2dVertex
 10
7.998
 20
9.68
 30
0.0
 42
1.0
  0
VERTEX
  5
59
100
AcDbEntity
  8
TOPLAYER
100
AcDbVertex
100
AcDb2dVertex
 10
8.002
 20
9.68
 30
0.0
 42
1.0
  0
SEQEND
  5
5A
100
AcDbEntity
  8
0
  0
POLYLINE
  5
5B
100
AcDbEntity
  8
TOPLAYER
100
AcDb2dPolyline
 66
     1
 10
0.0
 20
0.0
 30
0.0
 70
     1
 40
0.004
 41
0.004
 75
     8
  0
VERTEX
  5
5C
100
AcDbEntity
  8
TOPLAYER
100
AcDbVertex
100
AcDb2dVertex
 10
9.771056
 20
9.68
 30
0.0
 42
1.0
  0
VERTEX
  5
5D
100
AcDbEntity
  8
TOPLAYER
100
AcDbVertex
100
AcDb2dVertex
 10
9.775056
 20
9.68
 30
0.0
 42
1.0
  0
SEQEND
  5
5E
100
AcDbEntity
  8
0
  0
POLYLINE
  5
5F
100
AcDbEntity
  8
TOPLAYER
100
AcDb2dPolyline
 66
     1
 10
0.0
 20
0.0
 30
0.0
 40
0.008
 41
0.008
 75
     8
  0
VERTEX
  5
60
100
AcDbEntity
  8
TOPLAYER
100
AcDbVertex
100
AcDb2dVertex
 10
9.559363
 20
4.0115
 30
0.0
  0
VERTEX
  5
61
100
AcDbEntity
  8
TOPLAYER
100
AcDbVertex
100
AcDb2dVertex
 10
9.861046
 20
4.0115
 30
0.0
  0
SEQEND
  5
62
100
AcDbEntity
  8
0
  0
POLYLINE
  5
63
100
AcDbEntity
  8
TOPLAYER
100
AcDb2dPolyline
 66
     1
 10
0.0
 20
0.0
 30
0.0
 70
     1
 40
0.004
 41
0.004
 75
     8
  0
VERTEX
  5
64
100
AcDbEntity
  8
TOPLAYER
100
AcDbVertex
100
AcDb2dVertex
 10
9.557363
 20
4.0115
 30
0.0
 42
1.0
  0
VERTEX
  5
65
100
AcDbEntity
  8
TOPLAYER
100
AcDbVertex
100
AcDb2dVertex
 10
9.561363
 20
4.0115
 30
0.0
 42
1.0
  0
SEQEND
  5
66
100
AcDbEntity
  8
0
  0
POLYLINE
  5
67
100
AcDbEntity
  8
TOPLAYER
100
AcDb2dPolyline
 66
     1
 10
0.0
 20
0.0
 30
0.0
 70
     1
 40
0.004
 41
0.004
 75
     8
  0
VERTEX
  5
68
100
AcDbEntity
  8
TOPLAYER
100
AcDbVertex
100
AcDb2dVertex
 10
9.859046
 20
4.0115
 30
0.0
 42
1.0
  0
VERTEX
  5
69
100
AcDbEntity
  8
TOPLAYER
100
AcDbVertex
100
AcDb2dVertex
 10
9.863046
 20
4.0115
 30
0.0
 42
1.0
  0
SEQEND
  5
6A
100
AcDbEntity
  8
0
  0
POLYLINE
  5
6B
100
AcDbEntity
  8
TOPLAYER
100
AcDb2dPolyline
 66
     1
 10
0.0
 20
0.0
 30
0.0
 40
0.008
 41
0.008
 75
     8
  0
VERTEX
  5
6C
100
AcDbEntity
  8
TOPLAYER
100
AcDbVertex
100
AcDb2dVertex
 10
6.226944
 20
9.68
 30
0.0
  0
VERTEX
  5
6D
100
AcDbEntity
  8
TOPLAYER
100
AcDbVertex
100
AcDb2dVertex
 10
8.0
 20
9.68
 30
0.0
  0
SEQEND
  5
6E
100
AcDbEntity
  8
0
  0
POLYLINE
  5
6F
100
AcDbEntity
  8
TOPLAYER
100
AcDb2dPolyline
 66
     1
 10
0.0
 20
0.0
 30
0.0
 70
     1
 40
0.004
 41
0.004
 75
     8
  0
VERTEX
  5
70
100
AcDbEntity
  8
TOPLAYER
100
AcDbVertex
100
AcDb2dVertex
 10
6.224944
 20
9.68
 30
0.0
 42
1.0
  0
VERTEX
  5
71
100
AcDbEntity
  8
TOPLAYER
100
AcDbVertex
100
AcDb2dVertex
 10
6.228944
 20
9.68
 30
0.0
 42
1.0
  0
SEQEND
  5
72
100
AcDbEntity
  8
0
  0
POLYLINE
  5
73
100
AcDbEntity
  8
TOPLAYER
100
AcDb2dPolyline
 66
     1
 10
0.0
 20
0.0
 30
0.0
 70
     1
 40
0.004
 41
0.004
 75
     8
  0
VERTEX
  5
74
100
AcDbEntity
  8
TOPLAYER
100
AcDbVertex
100
AcDb2dVertex
 10
7.998
 20
9.68
 30
0.0
 42
1.0
  0
VERTEX
  5
75
100
AcDbEntity
  8
TOPLAYER
100
AcDbVertex
100
AcDb2dVertex
 10
8.002
 20
9.68
 30
0.0
 42
1.0
  0
SEQEND
  5
76
100
AcDbEntity
  8
0
  0
POLYLINE
  5
77
100
AcDbEntity
  8
TOPLAYER
100
AcDb2dPolyline
 66
     1
 10
0.0
 20
0.0
 30
0.0
 40
0.008
 41
0.008
 75
     8
  0
VERTEX
  5
78
100
AcDbEntity
  8
TOPLAYER
100
AcDbVertex
100
AcDb2dVertex
 10
4.851
 20
6.039072
 30
0.0
  0
VERTEX
  5
79
100
AcDbEntity
  8
TOPLAYER
100
AcDbVertex
100
AcDb2dVertex
 10
4.851
 20
6.1715
 30
0.0
  0
SEQEND
  5
7A
100
AcDbEntity
  8
0
  0
POLYLINE
  5
7B
100
AcDbEntity
  8
TOPLAYER
100
AcDb2dPolyline
 66
     1
 10
0.0
 20
0.0
 30
0.0
 70
     1
 40
0.004
 41
0.004
 75
     8
  0
VERTEX
  5
7C
100
AcDbEntity
  8
TOPLAYER
100
AcDbVertex
100
AcDb2dVertex
 10
4.849
 20
6.039072
 30
0.0
 42
1.0
  0
VERTEX
  5
7D
100
AcDbEntity
  8
TOPLAYER
100
AcDbVertex
100
AcDb2dVertex
 10
4.853
 20
6.039072
 30
0.0
 42
1.0
  0
SEQEND
  5
7E
100
AcDbEntity
  8
0
  0
POLYLINE
  5
7F
100
AcDbEntity
  8
TOPLAYER
100
AcDb2dPolyline
 66
     1
 10
0.0
 20
0.0
 30
0.0
 70
     1
 40
0.004
 41
0.004
 75
     8
  0
VERTEX
  5
80
100
AcDbEntity
  8
TOPLAYER
100
AcDbVertex
100
AcDb2dVertex
 10
4.849
 20
6.1715
 30
0.0
 42
1.0
  0
VERTEX
  5
81
100
AcDbEntity
  8
TOPLAYER
100
AcDbVertex
100
AcDb2dVertex
 10
4.853
 20
6.1715
 30
0.0
 42
1.0
  0
SEQEND
  5
82
100
AcDbEntity
  8
0
  0
POLYLINE
  5
83
100
AcDbEntity
  8
TOPLAYER
100
AcDb2dPolyline
 66
     1
 10
0.0
 20
0.0
 30
0.0
 40
0.008
 41
0.008
 75
     8
  0
VERTEX
  5
84
100
AcDbEntity
  8
TOPLAYER
100
AcDbVertex
100
AcDb2dVertex
 10
4.851
 20
7.8285
 30
0.0
  0
VERTEX
  5
85
100
AcDbEntity
  8
TOPLAYER
100
AcDbVertex
100
AcDb2dVertex
 10
4.851
 20
7.960928
 30
0.0
  0
SEQEND
  5
86
100
AcDbEntity
  8
0
  0
POLYLINE
  5
87
100
AcDbEntity
  8
TOPLAYER
100
AcDb2dPolyline
 66
     1
 10
0.0
 20
0.0
 30
0.0
 70
     1
 40
0.004
 41
0.004
 75
     8
  0
VERTEX
  5
88
100
AcDbEntity
  8
TOPLAYER
100
AcDbVertex
100
AcDb2dVertex
 10
4.849
 20
7.8285
 30
0.0
 42
1.0
  0
VERTEX
  5
89
100
AcDbEntity
  8
TOPLAYER
100
AcDbVertex
100
AcDb2dVertex
 10
4.853
 20
7.8285
 30
0.0
 42
1.0
  0
SEQEND
  5
8A
100
AcDbEntity
  8
0
  0
POLYLINE
  5
8B
100
AcDbEntity
  8
TOPLAYER
100
AcDb2dPolyline
 66
     1
 10
0.0
 20
0.0
 30
0.0
 70
     1
 40
0.004
 41
0.004
 75
     8
  0
VERTEX
  5
8C
100
AcDbEntity
  8
TOPLAYER
100
AcDbVertex
100
AcDb2dVertex
 10
4.849
 20
7.960928
 30
0.0
 42
1.0
  0
VERTEX
  5
8D
100
AcDbEntity
  8
TOPLAYER
100
AcDbVertex
100
AcDb2dVertex
 10
4.853
 20
7.960928
 30
0.0
 42
1.0
  0
SEQEND
  5
8E
100
AcDbEntity
  8
0
  0
POLYLINE
  5
8F
100
AcDbEntity
  8
TOPLAYER
100
AcDb2dPolyline
 66
     1
 10
0.0
 20
0.0
 30
0.0
 40
0.008
 41
0.008
 75
     8
  0
VERTEX
  5
90
100
AcDbEntity
  8
TOPLAYER
100
AcDbVertex
100
AcDb2dVertex
 10
4.851
 20
6.1715
 30
0.0
  0
VERTEX
  5
91
100
AcDbEntity
  8
TOPLAYER
100
AcDbVertex
100
AcDb2dVertex
 10
4.851
 20
7.8285
 30
0.0
  0
SEQEND
  5
92
100
AcDbEntity
  8
0
  0
POLYLINE
  5
93
100
AcDbEntity
  8
TOPLAYER
100
AcDb2dPolyline
 66
     1
 10
0.0
 20
0.0
 30
0.0
 70
     1
 40
0.004
 41
0.004
 75
     8
  0
VERTEX
  5
94
100
AcDbEntity
  8
TOPLAYER
100
AcDbVertex
100
AcDb2dVertex
 10
4.849
 20
6.1715
 30
0.0
 42
1.0
  0
VERTEX
  5
95
100
AcDbEntity
  8
TOPLAYER
100
AcDbVertex
100
AcDb2dVertex
 10
4.853
 20
6.1715
 30
0.0
 42
1.0
  0
SEQEND
  5
96
100
AcDbEntity
  8
0
  0
POLYLINE
  5
97
100
AcDbEntity
  8
TOPLAYER
100
AcDb2dPolyline
 66
     1
 10
0.0
 20
0.0
 30
0.0
 70
     1
 40
0.004
 41
0.004
 75
     8
  0
VERTEX
  5
98
100
AcDbEntity
  8
TOPLAYER
100
AcDbVertex
100
AcDb2dVertex
 10
4.849
 20
7.8285
 30
0.0
 42
1.0
  0
VERTEX
  5
99
100
AcDbEntity
  8
TOPLAYER
100
AcDbVertex
100
AcDb2dVertex
 10
4.853
 20
7.8285
 30
0.0
 42
1.0
  0
SEQEND
  5
9A
100
AcDbEntity
  8
0
  0
POLYLINE
  5
9B
100
AcDbEntity
  8
TOPLAYER
100
AcDb2dPolyline
 66
     1
 10
0.0
 20
0.0
 30
0.0
 40
0.008
 41
0.008
 75
     8
  0
VERTEX
  5
9C
100
AcDbEntity
  8
TOPLAYER
100
AcDbVertex
100
AcDb2dVertex
 10
6.440637
 20
4.0115
 30
0.0
  0
VERTEX
  5
9D
100
AcDbEntity
  8
TOPLAYER
100
AcDbVertex
100
AcDb2dVertex
 10
6.698353
 20
4.0115
 30
0.0
  0
SEQEND
  5
9E
100
AcDbEntity
  8
0
  0
POLYLINE
  5
9F
100
AcDbEntity
  8
TOPLAYER
100
AcDb2dPolyline
 66
     1
 10
0.0
 20
0.0
 30
0.0
 70
     1
 40
0.004
 41
0.004
 75
     8
  0
VERTEX
  5
A0
100
AcDbEntity
  8
TOPLAYER
100
AcDbVertex
100
AcDb2dVertex
 10
6.438637
 20
4.0115
 30
0.0
 42
1.0
  0
VERTEX
  5
A1
100
AcDbEntity
  8
TOPLAYER
100
AcDbVertex
100
AcDb2dVertex
 10
6.442637
 20
4.0115
 30
0.0
 42
1.0
  0
SEQEND
  5
A2
100
AcDbEntity
  8
0
  0
POLYLINE
  5
A3
100
AcDbEntity
  8
TOPLAYER
100
AcDb2dPolyline
 66
     1
 10
0.0
 20
0.0
 30
0.0
 70
     1
 40
0.004
 41
0.004
 75
     8
  0
VERTEX
  5
A4
100
AcDbEntity
  8
TOPLAYER
100
AcDbVertex
100
AcDb2dVertex
 10
6.696353
 20
4.0115
 30
0.0
 42
1.0
  0
VERTEX
  5
A5
100
AcDbEntity
  8
TOPLAYER
100
AcDbVertex
100
AcDb2dVertex
 10
6.700353
 20
4.0115
 30
0.0
 42
1.0
  0
SEQEND
  5
A6
100
AcDbEntity
  8
0
  0
POLYLINE
  5
A7
100
AcDbEntity
  8
TOPLAYER
100
AcDb2dPolyline
 66
     1
 10
0.0
 20
0.0
 30
0.0
 40
0.008
 41
0.008
 75
     8
  0
VERTEX
  5
A8
100
AcDbEntity
  8
TOPLAYER
100
AcDbVertex
100
AcDb2dVertex
 10
7.057923
 20
4.0115
 30
0.0
  0
VERTEX
  5
A9
100
AcDbEntity
  8
TOPLAYER
100
AcDbVertex
100
AcDb2dVertex
 10
7.315637
 20
4.0115
 30
0.0
  0
SEQEND
  5
AA
100
AcDbEntity
  8
0
  0
POLYLINE
  5
AB
100
AcDbEntity
  8
TOPLAYER
100
AcDb2dPolyline
 66
     1
 10
0.0
 20
0.0
 30
0.0
 70
     1
 40
0.004
 41
0.004
 75
     8
  0
VERTEX
  5
AC
100
AcDbEntity
  8
TOPLAYER
100
AcDbVertex
100
AcDb2dVertex
 10
7.055923
 20
4.0115
 30
0.0
 42
1.0
  0
VERTEX
  5
AD
100
AcDbEntity
  8
TOPLAYER
100
AcDbVertex
100
AcDb2dVertex
 10
7.059923
 20
4.0115
 30
0.0
 42
1.0
  0
SEQEND
  5
AE
100
AcDbEntity
  8
0
  0
POLYLINE
  5
AF
100
AcDbEntity
  8
TOPLAYER
100
AcDb2dPolyline
 66
     1
 10
0.0
 20
0.0
 30
0.0
 70
     1
 40
0.004
 41
0.004
 75
     8
  0
VERTEX
  5
B0
100
AcDbEntity
  8
TOPLAYER
100
AcDbVertex
100
AcDb2dVertex
 10
7.313637
 20
4.0115
 30
0.0
 42
1.0
  0
VERTEX
  5
B1
100
AcDbEntity
  8
TOPLAYER
100
AcDbVertex
100
AcDb2dVertex
 10
7.317637
 20
4.0115
 30
0.0
 42
1.0
  0
SEQEND
  5
B2
100
AcDbEntity
  8
0
  0
POLYLINE
  5
B3
100
AcDbEntity
  8
TOPLAYER
100
AcDb2dPolyline
 66
     1
 10
0.0
 20
0.0
 30
0.0
 40
0.008
 41
0.008
 75
     8
  0
VERTEX
  5
B4
100
AcDbEntity
  8
TOPLAYER
100
AcDbVertex
100
AcDb2dVertex
 10
7.315637
 20
4.0115
 30
0.0
  0
VERTEX
  5
B5
100
AcDbEntity
  8
TOPLAYER
100
AcDbVertex
100
AcDb2dVertex
 10
8.684637
 20
4.0115
 30
0.0
  0
SEQEND
  5
B6
100
AcDbEntity
  8
0
  0
POLYLINE
  5
B7
100
AcDbEntity
  8
TOPLAYER
100
AcDb2dPolyline
 66
     1
 10
0.0
 20
0.0
 30
0.0
 70
     1
 40
0.004
 41
0.004
 75
     8
  0
VERTEX
  5
B8
100
AcDbEntity
  8
TOPLAYER
100
AcDbVertex
100
AcDb2dVertex
 10
7.313637
 20
4.0115
 30
0.0
 42
1.0
  0
VERTEX
  5
B9
100
AcDbEntity
  8
TOPLAYER
100
AcDbVertex
100
AcDb2dVertex
 10
7.317637
 20
4.0115
 30
0.0
 42
1.0
  0
SEQEND
  5
BA
100
AcDbEntity
  8
0
  0
POLYLINE
  5
BB
100
AcDbEntity
  8
TOPLAYER
100
AcDb2dPolyline
 66
     1
 10
0.0
 20
0.0
 30
0.0
 70
     1
 40
0.004
 41
0.004
 75
     8
  0
VERTEX
  5
BC
100
AcDbEntity
  8
TOPLAYER
100
AcDbVertex
100
AcDb2dVertex
 10
8.682637
 20
4.0115
 30
0.0
 42
1.0
  0
VERTEX
  5
BD
100
AcDbEntity
  8
TOPLAYER
100
AcDbVertex
100
AcDb2dVertex
 10
8.686637
 20
4.0115
 30
0.0
 42
1.0
  0
SEQEND
  5
BE
100
AcDbEntity
  8
0
  0
POLYLINE
  5
BF
100
AcDbEntity
  8
TOPLAYER
100
AcDb2dPolyline
 66
     1
 10
0.0
 20
0.0
 30
0.0
 40
0.008
 41
0.008
 75
     8
  0
VERTEX
  5
C0
100
AcDbEntity
  8
TOPLAYER
100
AcDbVertex
100
AcDb2dVertex
 10
6.138954
 20
4.0115
 30
0.0
  0
VERTEX
  5
C1
100
AcDbEntity
  8
TOPLAYER
100
AcDbVertex
100
AcDb2dVertex
 10
6.440637
 20
4.0115
 30
0.0
  0
SEQEND
  5
C2
100
AcDbEntity
  8
0
  0
POLYLINE
  5
C3
100
AcDbEntity
  8
TOPLAYER
100
AcDb2dPolyline
 66
     1
 10
0.0
 20
0.0
 30
0.0
 70
     1
 40
0.004
 41
0.004
 75
     8
  0
VERTEX
  5
C4
100
AcDbEntity
  8
TOPLAYER
100
AcDbVertex
100
AcDb2dVertex
 10
6.136954
 20
4.0115
 30
0.0
 42
1.0
  0
VERTEX
  5
C5
100
AcDbEntity
  8
TOPLAYER
100
AcDbVertex
100
AcDb2dVertex
 10
6.140954
 20
4.0115
 30
0.0
 42
1.0
  0
SEQEND
  5
C6
100
AcDbEntity
  8
0
  0
POLYLINE
  5
C7
100
AcDbEntity
  8
TOPLAYER
100
AcDb2dPolyline
 66
     1
 10
0.0
 20
0.0
 30
0.0
 70
     1
 40
0.004
 41
0.004
 75
     8
  0
VERTEX
  5
C8
100
AcDbEntity
  8
TOPLAYER
100
AcDbVertex
100
AcDb2dVertex
 10
6.438637
 20
4.0115
 30
0.0
 42
1.0
  0
VERTEX
  5
C9
100
AcDbEntity
  8
TOPLAYER
100
AcDbVertex
100
AcDb2dVertex
 10
6.442637
 20
4.0115
 30
0.0
 42
1.0
  0
SEQEND
  5
CA
100
AcDbEntity
  8
0
  0
POLYLINE
  5
CB
100
AcDbEntity
  8
TOPLAYER
100
AcDb2dPolyline
 66
     1
 10
0.0
 20
0.0
 30
0.0
 40
0.008
 41
0.008
 75
     8
  0
VERTEX
  5
CC
100
AcDbEntity
  8
TOPLAYER
100
AcDbVertex
100
AcDb2dVertex
 10
10.179445
 20
9.374395
 30
0.0
  0
VERTEX
  5
CD
100
AcDbEntity
  8
TOPLAYER
100
AcDbVertex
100
AcDb2dVertex
 10
10.597813
 20
9.374395
 30
0.0
  0
SEQEND
  5
CE
100
AcDbEntity
  8
0
  0
POLYLINE
  5
CF
100
AcDbEntity
  8
TOPLAYER
100
AcDb2dPolyline
 66
     1
 10
0.0
 20
0.0
 30
0.0
 70
     1
 40
0.004
 41
0.004
 75
     8
  0
VERTEX
  5
D0
100
AcDbEntity
  8
TOPLAYER
100
AcDbVertex
100
AcDb2dVertex
 10
10.177445
 20
9.374395
 30
0.0
 42
1.0
  0
VERTEX
  5
D1
100
AcDbEntity
  8
TOPLAYER
100
AcDbVertex
100
AcDb2dVertex
 10
10.181445
 20
9.374395
 30
0.0
 42
1.0
  0
SEQEND
  5
D2
100
AcDbEntity
  8
0
  0
POLYLINE
  5
D3
100
AcDbEntity
  8
TOPLAYER
100
AcDb2dPolyline
 66
     1
 10
0.0
 20
0.0
 30
0.0
 70
     1
 40
0.004
 41
0.004
 75
     8
  0
VERTEX
  5
D4
100
AcDbEntity
  8
TOPLAYER
100
AcDbVertex
100
AcDb2dVertex
 10
10.595813
 20
9.374395
 30
0.0
 42
1.0
  0
VERTEX
  5
D5
100
AcDbEntity
  8
TOPLAYER
100
AcDbVertex
100
AcDb2dVertex
 10
10.599813
 20
9.374395
 30
0.0
 42
1.0
  0
SEQEND
  5
D6
100
AcDbEntity
  8
0
  0
POLYLINE
  5
D7
100
AcDbEntity
  8
TOPLAYER
100
AcDb2dPolyline
 66
     1
 10
0.0
 20
0.0
 30
0.0
 40
0.008
 41
0.008
 75
     8
  0
VERTEX
  5
D8
100
AcDbEntity
  8
TOPLAYER
100
AcDbVertex
100
AcDb2dVertex
 10
11.149
 20
6.039072
 30
0.0
  0
VERTEX
  5
D9
100
AcDbEntity
  8
TOPLAYER
100
AcDbVertex
100
AcDb2dVertex
 10
11.149
 20
6.1715
 30
0.0
  0
SEQEND
  5
DA
100
AcDbEntity
  8
0
  0
POLYLINE
  5
DB
100
AcDbEntity
  8
TOPLAYER
100
AcDb2dPolyline
 66
     1
 10
0.0
 20
0.0
 30
0.0
 70
     1
 40
0.004
 41
0.004
 75
     8
  0
VERTEX
  5
DC
100
AcDbEntity
  8
TOPLAYER
100
AcDbVertex
100
AcDb2dVertex
 10
11.147
 20
6.039072
 30
0.0
 42
1.0
  0
VERTEX
  5
DD
100
AcDbEntity
  8
TOPLAYER
100
AcDbVertex
100
AcDb2dVertex
 10
11.151
 20
6.039072
 30
0.0
 42
1.0
  0
SEQEND
  5
DE
100
AcDbEntity
  8
0
  0
POLYLINE
  5
DF
100
AcDbEntity
  8
TOPLAYER
100
AcDb2dPolyline
 66
     1
 10
0.0
 20
0.0
 30
0.0
 70
     1
 40
0.004
 41
0.004
 75
     8
  0
VERTEX
  5
E0
100
AcDbEntity
  8
TOPLAYER
100
AcDbVertex
100
AcDb2dVertex
 10
11.147
 20
6.1715
 30
0.0
 42
1.0
  0
VERTEX
  5
E1
100
AcDbEntity
  8
TOPLAYER
100
AcDbVertex
100
AcDb2dVertex
 10
11.151
 20
6.1715
 30
0.0
 42
1.0
  0
SEQEND
  5
E2
100
AcDbEntity
  8
0
  0
POLYLINE
  5
E3
100
AcDbEntity
  8
TOPLAYER
100
AcDb2dPolyline
 66
     1
 10
0.0
 20
0.0
 30
0.0
 40
0.008
 41
0.008
 75
     8
  0
VERTEX
  5
E4
100
AcDbEntity
  8
TOPLAYER
100
AcDbVertex
100
AcDb2dVertex
 10
11.149
 20
7.8285
 30
0.0
  0
VERTEX
  5
E5
100
AcDbEntity
  8
TOPLAYER
100
AcDbVertex
100
AcDb2dVertex
 10
11.149
 20
7.960928
 30
0.0
  0
SEQEND
  5
E6
100
AcDbEntity
  8
0
  0
POLYLINE
  5
E7
100
AcDbEntity
  8
TOPLAYER
100
AcDb2dPolyline
 66
     1
 10
0.0
 20
0.0
 30
0.0
 70
     1
 40
0.004
 41
0.004
 75
     8
  0
VERTEX
  5
E8
100
AcDbEntity
  8
TOPLAYER
100
AcDbVertex
100
AcDb2dVertex
 10
11.147
 20
7.8285
 30
0.0
 42
1.0
  0
VERTEX
  5
E9
100
AcDbEntity
  8
TOPLAYER
100
AcDbVertex
100
AcDb2dVertex
 10
11.151
 20
7.8285
 30
0.0
 42
1.0
  0
SEQEND
  5
EA
100
AcDbEntity
  8
0
  0
POLYLINE
  5
EB
100
AcDbEntity
  8
TOPLAYER
100
AcDb2dPolyline
 66
     1
 10
0.0
 20
0.0
 30
0.0
 70
     1
 40
0.004
 41
0.004
 75
     8
  0
VERTEX
  5
EC
100
AcDbEntity
  8
TOPLAYER
100
AcDbVertex
100
AcDb2dVertex
 10
11.147
 20
7.960928
 30
0.0
 42
1.0
  0
VERTEX
  5
ED
100
AcDbEntity
  8
TOPLAYER
100
AcDbVertex
100
AcDb2dVertex
 10
11.151
 20
7.960928
 30
0.0
 42
1.0
  0
SEQEND
  5
EE
100
AcDbEntity
  8
0
  0
POLYLINE
  5
EF
100
AcDbEntity
  8
TOPLAYER
100
AcDb2dPolyline
 66
     1
 10
0.0
 20
0.0
 30
0.0
 40
0.008
 41
0.008
 75
     8
  0
VERTEX
  5
F0
100
AcDbEntity
  8
TOPLAYER
100
AcDbVertex
100
AcDb2dVertex
 10
11.149
 20
6.1715
 30
0.0
  0
VERTEX
  5
F1
100
AcDbEntity
  8
TOPLAYER
100
AcDbVertex
100
AcDb2dVertex
 10
11.149
 20
7.8285
 30
0.0
  0
SEQEND
  5
F2
100
AcDbEntity
  8
0
  0
POLYLINE
  5
F3
100
AcDbEntity
  8
TOPLAYER
100
AcDb2dPolyline
 66
     1
 10
0.0
 20
0.0
 30
0.0
 70
     1
 40
0.004
 41
0.004
 75
     8
  0
VERTEX
  5
F4
100
AcDbEntity
  8
TOPLAYER
100
AcDbVertex
100
AcDb2dVertex
 10
11.147
 20
6.1715
 30
0.0
 42
1.0
  0
VERTEX
  5
F5
100
AcDbEntity
  8
TOPLAYER
100
AcDbVertex
100
AcDb2dVertex
 10
11.151
 20
6.1715
 30
0.0
 42
1.0
  0
SEQEND
  5
F6
100
AcDbEntity
  8
0
  0
POLYLINE
  5
F7
100
AcDbEntity
  8
TOPLAYER
100
AcDb2dPolyline
 66
     1
 10
0.0
 20
0.0
 30
0.0
 70
     1
 40
0.004
 41
0.004
 75
     8
  0
VERTEX
  5
F8
100
AcDbEntity
  8
TOPLAYER
100
AcDbVertex
100
AcDb2dVertex
 10
11.147
 20
7.8285
 30
0.0
 42
1.0
  0
VERTEX
  5
F9
100
AcDbEntity
  8
TOPLAYER
100
AcDbVertex
100
AcDb2dVertex
 10
11.151
 20
7.8285
 30
0.0
 42
1.0
  0
SEQEND
  5
FA
100
AcDbEntity
  8
0
  0
POLYLINE
  5
FB
100
AcDbEntity
  8
TOPLAYER
100
AcDb2dPolyline
 66
     1
 10
0.0
 20
0.0
 30
0.0
 40
0.008
 41
0.008
 75
     8
  0
VERTEX
  5
FC
100
AcDbEntity
  8
TOPLAYER
100
AcDbVertex
100
AcDb2dVertex
 10
9.307
 20
4.0115
 30
0.0
  0
VERTEX
  5
FD
100
AcDbEntity
  8
TOPLAYER
100
AcDbVertex
100
AcDb2dVertex
 10
9.559363
 20
4.0115
 30
0.0
  0
SEQEND
  5
FE
100
AcDbEntity
  8
0
  0
POLYLINE
  5
FF
100
AcDbEntity
  8
TOPLAYER
100
AcDb2dPolyline
 66
     1
 10
0.0
 20
0.0
 30
0.0
 70
     1
 40
0.004
 41
0.004
 75
     8
  0
VERTEX
  5
100
100
AcDbEntity
  8
TOPLAYER
100
AcDbVertex
100
AcDb2dVertex
 10
9.305
 20
4.0115
 30
0.0
 42
1.0
  0
VERTEX
  5
101
100
AcDbEntity
  8
TOPLAYER
100
AcDbVertex
100
AcDb2dVertex
 10
9.309
 20
4.0115
 30
0.0
 42
1.0
  0
SEQEND
  5
102
100
AcDbEntity
  8
0
  0
POLYLINE
  5
103
100
AcDbEntity
  8
TOPLAYER
100
AcDb2dPolyline
 66
     1
 10
0.0
 20
0.0
 30
0.0
 70
     1
 40
0.004
 41
0.004
 75
     8
  0
VERTEX
  5
104
100
AcDbEntity
  8
TOPLAYER
100
AcDbVertex
100
AcDb2dVertex
 10
9.557363
 20
4.0115
 30
0.0
 42
1.0
  0
VERTEX
  5
105
100
AcDbEntity
  8
TOPLAYER
100
AcDbVertex
100
AcDb2dVertex
 10
9.561363
 20
4.0115
 30
0.0
 42
1.0
  0
SEQEND
  5
106
100
AcDbEntity
  8
0
  0
POLYLINE
  5
107
100
AcDbEntity
  8
TOPLAYER
100
AcDb2dPolyline
 66
     1
 10
0.0
 20
0.0
 30
0.0
 40
0.008
 41
0.008
 75
     8
  0
VERTEX
  5
108
100
AcDbEntity
  8
TOPLAYER
100
AcDbVertex
100
AcDb2dVertex
 10
8.684363
 20
4.0115
 30
0.0
  0
VERTEX
  5
109
100
AcDbEntity
  8
TOPLAYER
100
AcDbVertex
100
AcDb2dVertex
 10
8.936
 20
4.0115
 30
0.0
  0
SEQEND
  5
10A
100
AcDbEntity
  8
0
  0
POLYLINE
  5
10B
100
AcDbEntity
  8
TOPLAYER
100
AcDb2dPolyline
 66
     1
 10
0.0
 20
0.0
 30
0.0
 70
     1
 40
0.004
 41
0.004
 75
     8
  0
VERTEX
  5
10C
100
AcDbEntity
  8
TOPLAYER
100
AcDbVertex
100
AcDb2dVertex
 10
8.682363
 20
4.0115
 30
0.0
 42
1.0
  0
VERTEX
  5
10D
100
AcDbEntity
  8
TOPLAYER
100
AcDbVertex
100
AcDb2dVertex
 10
8.686363
 20
4.0115
 30
0.0
 42
1.0
  0
SEQEND
  5
10E
100
AcDbEntity
  8
0
  0
POLYLINE
  5
10F
100
AcDbEntity
  8
TOPLAYER
100
AcDb2dPolyline
 66
     1
 10
0.0
 20
0.0
 30
0.0
 70
     1
 40
0.004
 41
0.004
 75
     8
  0
VERTEX
  5
110
100
AcDbEntity
  8
TOPLAYER
100
AcDbVertex
100
AcDb2dVertex
 10
8.934
 20
4.0115
 30
0.0
 42
1.0
  0
VERTEX
  5
111
100
AcDbEntity
  8
TOPLAYER
100
AcDbVertex
100
AcDb2dVertex
 10
8.938
 20
4.0115
 30
0.0
 42
1.0
  0
SEQEND
  5
112
100
AcDbEntity
  8
0
  0
POLYLINE
  5
113
100
AcDbEntity
  8
TOPLAYER
100
AcDb2dPolyline
 66
     1
 10
0.0
 20
0.0
 30
0.0
 40
0.008
 41
0.008
 75
     8
  0
VERTEX
  5
114
100
AcDbEntity
  8
TOPLAYER
100
AcDbVertex
100
AcDb2dVertex
 10
5.402187
 20
9.374395
 30
0.0
  0
VERTEX
  5
115
100
AcDbEntity
  8
TOPLAYER
100
AcDbVertex
100
AcDb2dVertex
 10
5.820555
 20
9.374395
 30
0.0
  0
SEQEND
  5
116
100
AcDbEntity
  8
0
  0
POLYLINE
  5
117
100
AcDbEntity
  8
TOPLAYER
100
AcDb2dPolyline
 66
     1
 10
0.0
 20
0.0
 30
0.0
 70
     1
 40
0.004
 41
0.004
 75
     8
  0
VERTEX
  5
118
100
AcDbEntity
  8
TOPLAYER
100
AcDbVertex
100
AcDb2dVertex
 10
5.400187
 20
9.374395
 30
0.0
 42
1.0
  0
VERTEX
  5
119
100
AcDbEntity
  8
TOPLAYER
100
AcDbVertex
100
AcDb2dVertex
 10
5.404187
 20
9.374395
 30
0.0
 42
1.0
  0
SEQEND
  5
11A
100
AcDbEntity
  8
0
  0
POLYLINE
  5
11B
100
AcDbEntity
  8
TOPLAYER
100
AcDb2dPolyline
 66
     1
 10
0.0
 20
0.0
 30
0.0
 70
     1
 40
0.004
 41
0.004
 75
     8
  0
VERTEX
  5
11C
100
AcDbEntity
  8
TOPLAYER
100
AcDbVertex
100
AcDb2dVertex
 10
5.818555
 20
9.374395
 30
0.0
 42
1.0
  0
VERTEX
  5
11D
100
AcDbEntity
  8
TOPLAYER
100
AcDbVertex
100
AcDb2dVertex
 10
5.822555
 20
9.374395
 30
0.0
 42
1.0
  0
SEQEND
  5
11E
100
AcDbEntity
  8
0
  0
POLYLINE
  5
11F
100
AcDbEntity
  8
MECHANICAL1
100
AcDb2dPolyline
 66
     1
 10
0.0
 20
0.0
 30
0.0
 40
0.008
 41
0.008
 75
     8
  0
VERTEX
  5
120
100
AcDbEntity
  8
MECHANICAL1
100
AcDbVertex
100
AcDb2dVertex
 10
4.5185
 20
6.039
 30
0.0
  0
VERTEX
  5
121
100
AcDbEntity
  8
MECHANICAL1
100
AcDbVertex
100
AcDb2dVertex
 10
4.7007
 20
6.039
 30
0.0
  0
SEQEND
  5
122
100
AcDbEntity
  8
0
  0
POLYLINE
  5
123
100
AcDbEntity
  8
MECHANICAL1
100
AcDb2dPolyline
 66
     1
 10
0.0
 20
0.0
 30
0.0
 70
     1
 40
0.004
 41
0.004
 75
     8
  0
VERTEX
  5
124
100
AcDbEntity
  8
MECHANICAL1
100
AcDbVertex
100
AcDb2dVertex
 10
4.5165
 20
6.039
 30
0.0
 42
1.0
  0
VERTEX
  5
125
100
AcDbEntity
  8
MECHANICAL1
100
AcDbVertex
100
AcDb2dVertex
 10
4.5205
 20
6.039
 30
0.0
 42
1.0
  0
SEQEND
  5
126
100
AcDbEntity
  8
0
  0
POLYLINE
  5
127
100
AcDbEntity
  8
MECHANICAL1
100
AcDb2dPolyline
 66
     1
 10
0.0
 20
0.0
 30
0.0
 70
     1
 40
0.004
 41
0.004
 75
     8
  0
VERTEX
  5
128
100
AcDbEntity
  8
MECHANICAL1
100
AcDbVertex
100
AcDb2dVertex
 10
4.6987
 20
6.039
 30
0.0
 42
1.0
  0
VERTEX
  5
129
100
AcDbEntity
  8
MECHANICAL1
100
AcDbVertex
100
AcDb2dVertex
 10
4.7027
 20
6.039
 30
0.0
 42
1.0
  0
SEQEND
  5
12A
100
AcDbEntity
  8
0
  0
POLYLINE
  5
12B
100
AcDbEntity
  8
MECHANICAL1
100
AcDb2dPolyline
 66
     1
 10
0.0
 20
0.0
 30
0.0
 40
0.008
 41
0.008
 75
     8
  0
VERTEX
  5
12C
100
AcDbEntity
  8
MECHANICAL1
100
AcDbVertex
100
AcDb2dVertex
 10
4.6381
 20
6.039
 30
0.0
  0
VERTEX
  5
12D
100
AcDbEntity
  8
MECHANICAL1
100
AcDbVertex
100
AcDb2dVertex
 10
4.6989
 20
6.039
 30
0.0
  0
SEQEND
  5
12E
100
AcDbEntity
  8
0
  0
POLYLINE
  5
12F
100
AcDbEntity
  8
MECHANICAL1
100
AcDb2dPolyline
 66
     1
 10
0.0
 20
0.0
 30
0.0
 70
     1
 40
0.004
 41
0.004
 75
     8
  0
VERTEX
  5
130
100
AcDbEntity
  8
MECHANICAL1
100
AcDbVertex
100
AcDb2dVertex
 10
4.6361
 20
6.039
 30
0.0
 42
1.0
  0
VERTEX
  5
131
100
AcDbEntity
  8
MECHANICAL1
100
AcDbVertex
100
AcDb2dVertex
 10
4.6401
 20
6.039
 30
0.0
 42
1.0
  0
SEQEND
  5
132
100
AcDbEntity
  8
0
  0
POLYLINE
  5
133
100
AcDbEntity
  8
MECHANICAL1
100
AcDb2dPolyline
 66
     1
 10
0.0
 20
0.0
 30
0.0
 70
     1
 40
0.004
 41
0.004
 75
     8
  0
VERTEX
  5
134
100
AcDbEntity
  8
MECHANICAL1
100
AcDbVertex
100
AcDb2dVertex
 10
4.6969
 20
6.039
 30
0.0
 42
1.0
  0
VERTEX
  5
135
100
AcDbEntity
  8
MECHANICAL1
100
AcDbVertex
100
AcDb2dVertex
 10
4.7009
 20
6.039
 30
0.0
 42
1.0
  0
SEQEND
  5
136
100
AcDbEntity
  8
0
  0
POLYLINE
  5
137
100
AcDbEntity
  8
MECHANICAL1
100
AcDb2dPolyline
 66
     1
 10
0.0
 20
0.0
 30
0.0
 40
0.008
 41
0.008
 75
     8
  0
VERTEX
  5
138
100
AcDbEntity
  8
MECHANICAL1
100
AcDbVertex
100
AcDb2dVertex
 10
4.7265
 20
6.039
 30
0.0
  0
VERTEX
  5
139
100
AcDbEntity
  8
MECHANICAL1
100
AcDbVertex
100
AcDb2dVertex
 10
4.7541
 20
6.039
 30
0.0
  0
SEQEND
  5
13A
100
AcDbEntity
  8
0
  0
POLYLINE
  5
13B
100
AcDbEntity
  8
MECHANICAL1
100
AcDb2dPolyline
 66
     1
 10
0.0
 20
0.0
 30
0.0
 70
     1
 40
0.004
 41
0.004
 75
     8
  0
VERTEX
  5
13C
100
AcDbEntity
  8
MECHANICAL1
100
AcDbVertex
100
AcDb2dVertex
 10
4.7245
 20
6.039
 30
0.0
 42
1.0
  0
VERTEX
  5
13D
100
AcDbEntity
  8
MECHANICAL1
100
AcDbVertex
100
AcDb2dVertex
 10
4.7285
 20
6.039
 30
0.0
 42
1.0
  0
SEQEND
  5
13E
100
AcDbEntity
  8
0
  0
POLYLINE
  5
13F
100
AcDbEntity
  8
MECHANICAL1
100
AcDb2dPolyline
 66
     1
 10
0.0
 20
0.0
 30
0.0
 70
     1
 40
0.004
 41
0.004
 75
     8
  0
VERTEX
  5
140
100
AcDbEntity
  8
MECHANICAL1
100
AcDbVertex
100
AcDb2dVertex
 10
4.7521
 20
6.039
 30
0.0
 42
1.0
  0
VERTEX
  5
141
100
AcDbEntity
  8
MECHANICAL1
100
AcDbVertex
100
AcDb2dVertex
 10
4.7561
 20
6.039
 30
0.0
 42
1.0
  0
SEQEND
  5
142
100
AcDbEntity
  8
0
  0
POLYLINE
  5
143
100
AcDbEntity
  8
MECHANICAL1
100
AcDb2dPolyline
 66
     1
 10
0.0
 20
0.0
 30
0.0
 40
0.008
 41
0.008
 75
     8
  0
VERTEX
  5
144
100
AcDbEntity
  8
MECHANICAL1
100
AcDbVertex
100
AcDb2dVertex
 10
4.7265
 20
6.0114
 30
0.0
  0
VERTEX
  5
145
100
AcDbEntity
  8
MECHANICAL1
100
AcDbVertex
100
AcDb2dVertex
 10
4.7265
 20
6.039
 30
0.0
  0
SEQEND
  5
146
100
AcDbEntity
  8
0
  0
POLYLINE
  5
147
100
AcDbEntity
  8
MECHANICAL1
100
AcDb2dPolyline
 66
     1
 10
0.0
 20
0.0
 30
0.0
 70
     1
 40
0.004
 41
0.004
 75
     8
  0
VERTEX
  5
148
100
AcDbEntity
  8
MECHANICAL1
100
AcDbVertex
100
AcDb2dVertex
 10
4.7245
 20
6.0114
 30
0.0
 42
1.0
  0
VERTEX
  5
149
100
AcDbEntity
  8
MECHANICAL1
100
AcDbVertex
100
AcDb2dVertex
 10
4.7285
 20
6.0114
 30
0.0
 42
1.0
  0
SEQEND
  5
14A
100
AcDbEntity
  8
0
  0
POLYLINE
  5
14B
100
AcDbEntity
  8
MECHANICAL1
100
AcDb2dPolyline
 66
     1
 10
0.0
 20
0.0
 30
0.0
 70
     1
 40
0.004
 41
0.004
 75
     8
  0
VERTEX
  5
14C
100
AcDbEntity
  8
MECHANICAL1
100
AcDbVertex
100
AcDb2dVertex
 10
4.7245
 20
6.039
 30
0.0
 42
1.0
  0
VERTEX
  5
14D
100
AcDbEntity
  8
MECHANICAL1
100
AcDbVertex
100
AcDb2dVertex
 10
4.7285
 20
6.039
 30
0.0
 42
1.0
  0
SEQEND
  5
14E
100
AcDbEntity
  8
0
  0
POLYLINE
  5
14F
100
AcDbEntity
  8
MECHANICAL1
100
AcDb2dPolyline
 66
     1
 10
0.0
 20
0.0
 30
0.0
 40
0.008
 41
0.008
 75
     8
  0
VERTEX
  5
150
100
AcDbEntity
  8
MECHANICAL1
100
AcDbVertex
100
AcDb2dVertex
 10
4.6989
 20
6.039
 30
0.0
  0
VERTEX
  5
151
100
AcDbEntity
  8
MECHANICAL1
100
AcDbVertex
100
AcDb2dVertex
 10
4.7265
 20
6.039
 30
0.0
  0
SEQEND
  5
152
100
AcDbEntity
  8
0
  0
POLYLINE
  5
153
100
AcDbEntity
  8
MECHANICAL1
100
AcDb2dPolyline
 66
     1
 10
0.0
 20
0.0
 30
0.0
 70
     1
 40
0.004
 41
0.004
 75
     8
  0
VERTEX
  5
154
100
AcDbEntity
  8
MECHANICAL1
100
AcDbVertex
100
AcDb2dVertex
 10
4.6969
 20
6.039
 30
0.0
 42
1.0
  0
VERTEX
  5
155
100
AcDbEntity
  8
MECHANICAL1
100
AcDbVertex
100
AcDb2dVertex
 10
4.7009
 20
6.039
 30
0.0
 42
1.0
  0
SEQEND
  5
156
100
AcDbEntity
  8
0
  0
POLYLINE
  5
157
100
AcDbEntity
  8
MECHANICAL1
100
AcDb2dPolyline
 66
     1
 10
0.0
 20
0.0
 30
0.0
 70
     1
 40
0.004
 41
0.004
 75
     8
  0
VERTEX
  5
158
100
AcDbEntity
  8
MECHANICAL1
100
AcDbVertex
100
AcDb2dVertex
 10
4.7245
 20
6.039
 30
0.0
 42
1.0
  0
VERTEX
  5
159
100
AcDbEntity
  8
MECHANICAL1
100
AcDbVertex
100
AcDb2dVertex
 10
4.7285
 20
6.039
 30
0.0
 42
1.0
  0
SEQEND
  5
15A
100
AcDbEntity
  8
0
  0
POLYLINE
  5
15B
100
AcDbEntity
  8
MECHANICAL1
100
AcDb2dPolyline
 66
     1
 10
0.0
 20
0.0
 30
0.0
 40
0.008
 41
0.008
 75
     8
  0
VERTEX
  5
15C
100
AcDbEntity
  8
MECHANICAL1
100
AcDbVertex
100
AcDb2dVertex
 10
4.7265
 20
6.039
 30
0.0
  0
VERTEX
  5
15D
100
AcDbEntity
  8
MECHANICAL1
100
AcDbVertex
100
AcDb2dVertex
 10
4.7265
 20
6.0666
 30
0.0
  0
SEQEND
  5
15E
100
AcDbEntity
  8
0
  0
POLYLINE
  5
15F
100
AcDbEntity
  8
MECHANICAL1
100
AcDb2dPolyline
 66
     1
 10
0.0
 20
0.0
 30
0.0
 70
     1
 40
0.004
 41
0.004
 75
     8
  0
VERTEX
  5
160
100
AcDbEntity
  8
MECHANICAL1
100
AcDbVertex
100
AcDb2dVertex
 10
4.7245
 20
6.039
 30
0.0
 42
1.0
  0
VERTEX
  5
161
100
AcDbEntity
  8
MECHANICAL1
100
AcDbVertex
100
AcDb2dVertex
 10
4.7285
 20
6.039
 30
0.0
 42
1.0
  0
SEQEND
  5
162
100
AcDbEntity
  8
0
  0
POLYLINE
  5
163
100
AcDbEntity
  8
MECHANICAL1
100
AcDb2dPolyline
 66
     1
 10
0.0
 20
0.0
 30
0.0
 70
     1
 40
0.004
 41
0.004
 75
     8
  0
VERTEX
  5
164
100
AcDbEntity
  8
MECHANICAL1
100
AcDbVertex
100
AcDb2dVertex
 10
4.7245
 20
6.0666
 30
0.0
 42
1.0
  0
VERTEX
  5
165
100
AcDbEntity
  8
MECHANICAL1
100
AcDbVertex
100
AcDb2dVertex
 10
4.7285
 20
6.0666
 30
0.0
 42
1.0
  0
SEQEND
  5
166
100
AcDbEntity
  8
0
  0
POLYLINE
  5
167
100
AcDbEntity
  8
MECHANICAL1
100
AcDb2dPolyline
 66
     1
 10
0.0
 20
0.0
 30
0.0
 40
0.008
 41
0.008
 75
     8
  0
VERTEX
  5
168
100
AcDbEntity
  8
MECHANICAL1
100
AcDbVertex
100
AcDb2dVertex
 10
4.8149
 20
5.9506
 30
0.0
  0
VERTEX
  5
169
100
AcDbEntity
  8
MECHANICAL1
100
AcDbVertex
100
AcDb2dVertex
 10
4.8149
 20
5.976
 30
0.0
  0
SEQEND
  5
16A
100
AcDbEntity
  8
0
  0
POLYLINE
  5
16B
100
AcDbEntity
  8
MECHANICAL1
100
AcDb2dPolyline
 66
     1
 10
0.0
 20
0.0
 30
0.0
 70
     1
 40
0.004
 41
0.004
 75
     8
  0
VERTEX
  5
16C
100
AcDbEntity
  8
MECHANICAL1
100
AcDbVertex
100
AcDb2dVertex
 10
4.8129
 20
5.9506
 30
0.0
 42
1.0
  0
VERTEX
  5
16D
100
AcDbEntity
  8
MECHANICAL1
100
AcDbVertex
100
AcDb2dVertex
 10
4.8169
 20
5.9506
 30
0.0
 42
1.0
  0
SEQEND
  5
16E
100
AcDbEntity
  8
0
  0
POLYLINE
  5
16F
100
AcDbEntity
  8
MECHANICAL1
100
AcDb2dPolyline
 66
     1
 10
0.0
 20
0.0
 30
0.0
 70
     1
 40
0.004
 41
0.004
 75
     8
  0
VERTEX
  5
170
100
AcDbEntity
  8
MECHANICAL1
100
AcDbVertex
100
AcDb2dVertex
 10
4.8129
 20
5.976
 30
0.0
 42
1.0
  0
VERTEX
  5
171
100
AcDbEntity
  8
MECHANICAL1
100
AcDbVertex
100
AcDb2dVertex
 10
4.8169
 20
5.976
 30
0.0
 42
1.0
  0
SEQEND
  5
172
100
AcDbEntity
  8
0
  0
POLYLINE
  5
173
100
AcDbEntity
  8
MECHANICAL1
100
AcDb2dPolyline
 66
     1
 10
0.0
 20
0.0
 30
0.0
 40
0.008
 41
0.008
 75
     8
  0
VERTEX
  5
174
100
AcDbEntity
  8
MECHANICAL1
100
AcDbVertex
100
AcDb2dVertex
 10
4.7895
 20
5.9506
 30
0.0
  0
VERTEX
  5
175
100
AcDbEntity
  8
MECHANICAL1
100
AcDbVertex
100
AcDb2dVertex
 10
4.8149
 20
5.9506
 30
0.0
  0
SEQEND
  5
176
100
AcDbEntity
  8
0
  0
POLYLINE
  5
177
100
AcDbEntity
  8
MECHANICAL1
100
AcDb2dPolyline
 66
     1
 10
0.0
 20
0.0
 30
0.0
 70
     1
 40
0.004
 41
0.004
 75
     8
  0
VERTEX
  5
178
100
AcDbEntity
  8
MECHANICAL1
100
AcDbVertex
100
AcDb2dVertex
 10
4.7875
 20
5.9506
 30
0.0
 42
1.0
  0
VERTEX
  5
179
100
AcDbEntity
  8
MECHANICAL1
100
AcDbVertex
100
AcDb2dVertex
 10
4.7915
 20
5.9506
 30
0.0
 42
1.0
  0
SEQEND
  5
17A
100
AcDbEntity
  8
0
  0
POLYLINE
  5
17B
100
AcDbEntity
  8
MECHANICAL1
100
AcDb2dPolyline
 66
     1
 10
0.0
 20
0.0
 30
0.0
 70
     1
 40
0.004
 41
0.004
 75
     8
  0
VERTEX
  5
17C
100
AcDbEntity
  8
MECHANICAL1
100
AcDbVertex
100
AcDb2dVertex
 10
4.8129
 20
5.9506
 30
0.0
 42
1.0
  0
VERTEX
  5
17D
100
AcDbEntity
  8
MECHANICAL1
100
AcDbVertex
100
AcDb2dVertex
 10
4.8169
 20
5.9506
 30
0.0
 42
1.0
  0
SEQEND
  5
17E
100
AcDbEntity
  8
0
  0
POLYLINE
  5
17F
100
AcDbEntity
  8
MECHANICAL1
100
AcDb2dPolyline
 66
     1
 10
0.0
 20
0.0
 30
0.0
 40
0.008
 41
0.008
 75
     8
  0
VERTEX
  5
180
100
AcDbEntity
  8
MECHANICAL1
100
AcDbVertex
100
AcDb2dVertex
 10
4.7265
 20
6.039
 30
0.0
  0
VERTEX
  5
181
100
AcDbEntity
  8
MECHANICAL1
100
AcDbVertex
100
AcDb2dVertex
 10
4.8149
 20
5.9506
 30
0.0
  0
SEQEND
  5
182
100
AcDbEntity
  8
0
  0
POLYLINE
  5
183
100
AcDbEntity
  8
MECHANICAL1
100
AcDb2dPolyline
 66
     1
 10
0.0
 20
0.0
 30
0.0
 70
     1
 40
0.004
 41
0.004
 75
     8
  0
VERTEX
  5
184
100
AcDbEntity
  8
MECHANICAL1
100
AcDbVertex
100
AcDb2dVertex
 10
4.7245
 20
6.039
 30
0.0
 42
1.0
  0
VERTEX
  5
185
100
AcDbEntity
  8
MECHANICAL1
100
AcDbVertex
100
AcDb2dVertex
 10
4.7285
 20
6.039
 30
0.0
 42
1.0
  0
SEQEND
  5
186
100
AcDbEntity
  8
0
  0
POLYLINE
  5
187
100
AcDbEntity
  8
MECHANICAL1
100
AcDb2dPolyline
 66
     1
 10
0.0
 20
0.0
 30
0.0
 70
     1
 40
0.004
 41
0.004
 75
     8
  0
VERTEX
  5
188
100
AcDbEntity
  8
MECHANICAL1
100
AcDbVertex
100
AcDb2dVertex
 10
4.8129
 20
5.9506
 30
0.0
 42
1.0
  0
VERTEX
  5
189
100
AcDbEntity
  8
MECHANICAL1
100
AcDbVertex
100
AcDb2dVertex
 10
4.8169
 20
5.9506
 30
0.0
 42
1.0
  0
SEQEND
  5
18A
100
AcDbEntity
  8
0
  0
POLYLINE
  5
18B
100
AcDbEntity
  8
MECHANICAL1
100
AcDb2dPolyline
 66
     1
 10
0.0
 20
0.0
 30
0.0
 40
0.008
 41
0.008
 75
     8
  0
VERTEX
  5
18C
100
AcDbEntity
  8
MECHANICAL1
100
AcDbVertex
100
AcDb2dVertex
 10
6.7452
 20
3.933
 30
0.0
  0
VERTEX
  5
18D
100
AcDbEntity
  8
MECHANICAL1
100
AcDbVertex
100
AcDb2dVertex
 10
6.76937
 20
3.933
 30
0.0
  0
SEQEND
  5
18E
100
AcDbEntity
  8
0
  0
POLYLINE
  5
18F
100
AcDbEntity
  8
MECHANICAL1
100
AcDb2dPolyline
 66
     1
 10
0.0
 20
0.0
 30
0.0
 70
     1
 40
0.004
 41
0.004
 75
     8
  0
VERTEX
  5
190
100
AcDbEntity
  8
MECHANICAL1
100
AcDbVertex
100
AcDb2dVertex
 10
6.7432
 20
3.933
 30
0.0
 42
1.0
  0
VERTEX
  5
191
100
AcDbEntity
  8
MECHANICAL1
100
AcDbVertex
100
AcDb2dVertex
 10
6.7472
 20
3.933
 30
0.0
 42
1.0
  0
SEQEND
  5
192
100
AcDbEntity
  8
0
  0
POLYLINE
  5
193
100
AcDbEntity
  8
MECHANICAL1
100
AcDb2dPolyline
 66
     1
 10
0.0
 20
0.0
 30
0.0
 70
     1
 40
0.004
 41
0.004
 75
     8
  0
VERTEX
  5
194
100
AcDbEntity
  8
MECHANICAL1
100
AcDbVertex
100
AcDb2dVertex
 10
6.76737
 20
3.933
 30
0.0
 42
1.0
  0
VERTEX
  5
195
100
AcDbEntity
  8
MECHANICAL1
100
AcDbVertex
100
AcDb2dVertex
 10
6.77137
 20
3.933
 30
0.0
 42
1.0
  0
SEQEND
  5
196
100
AcDbEntity
  8
0
  0
POLYLINE
  5
197
100
AcDbEntity
  8
MECHANICAL1
100
AcDb2dPolyline
 66
     1
 10
0.0
 20
0.0
 30
0.0
 40
0.008
 41
0.008
 75
     8
  0
VERTEX
  5
198
100
AcDbEntity
  8
MECHANICAL1
100
AcDbVertex
100
AcDb2dVertex
 10
6.7447
 20
3.9339
 30
0.0
  0
VERTEX
  5
199
100
AcDbEntity
  8
MECHANICAL1
100
AcDbVertex
100
AcDb2dVertex
 10
6.7447
 20
3.95807
 30
0.0
  0
SEQEND
  5
19A
100
AcDbEntity
  8
0
  0
POLYLINE
  5
19B
100
AcDbEntity
  8
MECHANICAL1
100
AcDb2dPolyline
 66
     1
 10
0.0
 20
0.0
 30
0.0
 70
     1
 40
0.004
 41
0.004
 75
     8
  0
VERTEX
  5
19C
100
AcDbEntity
  8
MECHANICAL1
100
AcDbVertex
100
AcDb2dVertex
 10
6.7427
 20
3.9339
 30
0.0
 42
1.0
  0
VERTEX
  5
19D
100
AcDbEntity
  8
MECHANICAL1
100
AcDbVertex
100
AcDb2dVertex
 10
6.7467
 20
3.9339
 30
0.0
 42
1.0
  0
SEQEND
  5
19E
100
AcDbEntity
  8
0
  0
POLYLINE
  5
19F
100
AcDbEntity
  8
MECHANICAL1
100
AcDb2dPolyline
 66
     1
 10
0.0
 20
0.0
 30
0.0
 70
     1
 40
0.004
 41
0.004
 75
     8
  0
VERTEX
  5
1A0
100
AcDbEntity
  8
MECHANICAL1
100
AcDbVertex
100
AcDb2dVertex
 10
6.7427
 20
3.95807
 30
0.0
 42
1.0
  0
VERTEX
  5
1A1
100
AcDbEntity
  8
MECHANICAL1
100
AcDbVertex
100
AcDb2dVertex
 10
6.7467
 20
3.95807
 30
0.0
 42
1.0
  0
SEQEND
  5
1A2
100
AcDbEntity
  8
0
  0
POLYLINE
  5
1A3
100
AcDbEntity
  8
MECHANICAL1
100
AcDb2dPolyline
 66
     1
 10
0.0
 20
0.0
 30
0.0
 40
0.008
 41
0.008
 75
     8
  0
VERTEX
  5
1A4
100
AcDbEntity
  8
MECHANICAL1
100
AcDbVertex
100
AcDb2dVertex
 10
6.536
 20
3.832
 30
0.0
  0
VERTEX
  5
1A5
100
AcDbEntity
  8
MECHANICAL1
100
AcDbVertex
100
AcDb2dVertex
 10
6.643
 20
3.832
 30
0.0
  0
SEQEND
  5
1A6
100
AcDbEntity
  8
0
  0
POLYLINE
  5
1A7
100
AcDbEntity
  8
MECHANICAL1
100
AcDb2dPolyline
 66
     1
 10
0.0
 20
0.0
 30
0.0
 70
     1
 40
0.004
 41
0.004
 75
     8
  0
VERTEX
  5
1A8
100
AcDbEntity
  8
MECHANICAL1
100
AcDbVertex
100
AcDb2dVertex
 10
6.534
 20
3.832
 30
0.0
 42
1.0
  0
VERTEX
  5
1A9
100
AcDbEntity
  8
MECHANICAL1
100
AcDbVertex
100
AcDb2dVertex
 10
6.538
 20
3.832
 30
0.0
 42
1.0
  0
SEQEND
  5
1AA
100
AcDbEntity
  8
0
  0
POLYLINE
  5
1AB
100
AcDbEntity
  8
MECHANICAL1
100
AcDb2dPolyline
 66
     1
 10
0.0
 20
0.0
 30
0.0
 70
     1
 40
0.004
 41
0.004
 75
     8
  0
VERTEX
  5
1AC
100
AcDbEntity
  8
MECHANICAL1
100
AcDbVertex
100
AcDb2dVertex
 10
6.641
 20
3.832
 30
0.0
 42
1.0
  0
VERTEX
  5
1AD
100
AcDbEntity
  8
MECHANICAL1
100
AcDbVertex
100
AcDb2dVertex
 10
6.645
 20
3.832
 30
0.0
 42
1.0
  0
SEQEND
  5
1AE
100
AcDbEntity
  8
0
  0
POLYLINE
  5
1AF
100
AcDbEntity
  8
MECHANICAL1
100
AcDb2dPolyline
 66
     1
 10
0.0
 20
0.0
 30
0.0
 40
0.008
 41
0.008
 75
     8
  0
VERTEX
  5
1B0
100
AcDbEntity
  8
MECHANICAL1
100
AcDbVertex
100
AcDb2dVertex
 10
6.643
 20
3.832
 30
0.0
  0
VERTEX
  5
1B1
100
AcDbEntity
  8
MECHANICAL1
100
AcDbVertex
100
AcDb2dVertex
 10
6.878
 20
4.067
 30
0.0
  0
SEQEND
  5
1B2
100
AcDbEntity
  8
0
  0
POLYLINE
  5
1B3
100
AcDbEntity
  8
MECHANICAL1
100
AcDb2dPolyline
 66
     1
 10
0.0
 20
0.0
 30
0.0
 70
     1
 40
0.004
 41
0.004
 75
     8
  0
VERTEX
  5
1B4
100
AcDbEntity
  8
MECHANICAL1
100
AcDbVertex
100
AcDb2dVertex
 10
6.641
 20
3.832
 30
0.0
 42
1.0
  0
VERTEX
  5
1B5
100
AcDbEntity
  8
MECHANICAL1
100
AcDbVertex
100
AcDb2dVertex
 10
6.645
 20
3.832
 30
0.0
 42
1.0
  0
SEQEND
  5
1B6
100
AcDbEntity
  8
0
  0
POLYLINE
  5
1B7
100
AcDbEntity
  8
MECHANICAL1
100
AcDb2dPolyline
 66
     1
 10
0.0
 20
0.0
 30
0.0
 70
     1
 40
0.004
 41
0.004
 75
     8
  0
VERTEX
  5
1B8
100
AcDbEntity
  8
MECHANICAL1
100
AcDbVertex
100
AcDb2dVertex
 10
6.876
 20
4.067
 30
0.0
 42
1.0
  0
VERTEX
  5
1B9
100
AcDbEntity
  8
MECHANICAL1
100
AcDbVertex
100
AcDb2dVertex
 10
6.88
 20
4.067
 30
0.0
 42
1.0
  0
SEQEND
  5
1BA
100
AcDbEntity
  8
0
  0
POLYLINE
  5
1BB
100
AcDbEntity
  8
MECHANICAL1
100
AcDb2dPolyline
 66
     1
 10
0.0
 20
0.0
 30
0.0
 40
0.008
 41
0.008
 75
     8
  0
VERTEX
  5
1BC
100
AcDbEntity
  8
MECHANICAL1
100
AcDbVertex
100
AcDb2dVertex
 10
11.185
 20
8.266
 30
0.0
  0
VERTEX
  5
1BD
100
AcDbEntity
  8
MECHANICAL1
100
AcDbVertex
100
AcDb2dVertex
 10
11.206
 20
8.266
 30
0.0
  0
SEQEND
  5
1BE
100
AcDbEntity
  8
0
  0
POLYLINE
  5
1BF
100
AcDbEntity
  8
MECHANICAL1
100
AcDb2dPolyline
 66
     1
 10
0.0
 20
0.0
 30
0.0
 70
     1
 40
0.004
 41
0.004
 75
     8
  0
VERTEX
  5
1C0
100
AcDbEntity
  8
MECHANICAL1
100
AcDbVertex
100
AcDb2dVertex
 10
11.183
 20
8.266
 30
0.0
 42
1.0
  0
VERTEX
  5
1C1
100
AcDbEntity
  8
MECHANICAL1
100
AcDbVertex
100
AcDb2dVertex
 10
11.187
 20
8.266
 30
0.0
 42
1.0
  0
SEQEND
  5
1C2
100
AcDbEntity
  8
0
  0
POLYLINE
  5
1C3
100
AcDbEntity
  8
MECHANICAL1
100
AcDb2dPolyline
 66
     1
 10
0.0
 20
0.0
 30
0.0
 70
     1
 40
0.004
 41
0.004
 75
     8
  0
VERTEX
  5
1C4
100
AcDbEntity
  8
MECHANICAL1
100
AcDbVertex
100
AcDb2dVertex
 10
11.204
 20
8.266
 30
0.0
 42
1.0
  0
VERTEX
  5
1C5
100
AcDbEntity
  8
MECHANICAL1
100
AcDbVertex
100
AcDb2dVertex
 10
11.208
 20
8.266
 30
0.0
 42
1.0
  0
SEQEND
  5
1C6
100
AcDbEntity
  8
0
  0
POLYLINE
  5
1C7
100
AcDbEntity
  8
MECHANICAL1
100
AcDb2dPolyline
 66
     1
 10
0.0
 20
0.0
 30
0.0
 40
0.008
 41
0.008
 75
     8
  0
VERTEX
  5
1C8
100
AcDbEntity
  8
MECHANICAL1
100
AcDbVertex
100
AcDb2dVertex
 10
11.163
 20
8.266
 30
0.0
  0
VERTEX
  5
1C9
100
AcDbEntity
  8
MECHANICAL1
100
AcDbVertex
100
AcDb2dVertex
 10
11.185
 20
8.266
 30
0.0
  0
SEQEND
  5
1CA
100
AcDbEntity
  8
0
  0
POLYLINE
  5
1CB
100
AcDbEntity
  8
MECHANICAL1
100
AcDb2dPolyline
 66
     1
 10
0.0
 20
0.0
 30
0.0
 70
     1
 40
0.004
 41
0.004
 75
     8
  0
VERTEX
  5
1CC
100
AcDbEntity
  8
MECHANICAL1
100
AcDbVertex
100
AcDb2dVertex
 10
11.161
 20
8.266
 30
0.0
 42
1.0
  0
VERTEX
  5
1CD
100
AcDbEntity
  8
MECHANICAL1
100
AcDbVertex
100
AcDb2dVertex
 10
11.165
 20
8.266
 30
0.0
 42
1.0
  0
SEQEND
  5
1CE
100
AcDbEntity
  8
0
  0
POLYLINE
  5
1CF
100
AcDbEntity
  8
MECHANICAL1
100
AcDb2dPolyline
 66
     1
 10
0.0
 20
0.0
 30
0.0
 70
     1
 40
0.004
 41
0.004
 75
     8
  0
VERTEX
  5
1D0
100
AcDbEntity
  8
MECHANICAL1
100
AcDbVertex
100
AcDb2dVertex
 10
11.183
 20
8.266
 30
0.0
 42
1.0
  0
VERTEX
  5
1D1
100
AcDbEntity
  8
MECHANICAL1
100
AcDbVertex
100
AcDb2dVertex
 10
11.187
 20
8.266
 30
0.0
 42
1.0
  0
SEQEND
  5
1D2
100
AcDbEntity
  8
0
  0
POLYLINE
  5
1D3
100
AcDbEntity
  8
MECHANICAL1
100
AcDb2dPolyline
 66
     1
 10
0.0
 20
0.0
 30
0.0
 40
0.008
 41
0.008
 75
     8
  0
VERTEX
  5
1D4
100
AcDbEntity
  8
MECHANICAL1
100
AcDbVertex
100
AcDb2dVertex
 10
11.185
 20
8.246
 30
0.0
  0
VERTEX
  5
1D5
100
AcDbEntity
  8
MECHANICAL1
100
AcDbVertex
100
AcDb2dVertex
 10
11.185
 20
8.266
 30
0.0
  0
SEQEND
  5
1D6
100
AcDbEntity
  8
0
  0
POLYLINE
  5
1D7
100
AcDbEntity
  8
MECHANICAL1
100
AcDb2dPolyline
 66
     1
 10
0.0
 20
0.0
 30
0.0
 70
     1
 40
0.004
 41
0.004
 75
     8
  0
VERTEX
  5
1D8
100
AcDbEntity
  8
MECHANICAL1
100
AcDbVertex
100
AcDb2dVertex
 10
11.183
 20
8.246
 30
0.0
 42
1.0
  0
VERTEX
  5
1D9
100
AcDbEntity
  8
MECHANICAL1
100
AcDbVertex
100
AcDb2dVertex
 10
11.187
 20
8.246
 30
0.0
 42
1.0
  0
SEQEND
  5
1DA
100
AcDbEntity
  8
0
  0
POLYLINE
  5
1DB
100
AcDbEntity
  8
MECHANICAL1
100
AcDb2dPolyline
 66
     1
 10
0.0
 20
0.0
 30
0.0
 70
     1
 40
0.004
 41
0.004
 75
     8
  0
VERTEX
  5
1DC
100
AcDbEntity
  8
MECHANICAL1
100
AcDbVertex
100
AcDb2dVertex
 10
11.183
 20
8.266
 30
0.0
 42
1.0
  0
VERTEX
  5
1DD
100
AcDbEntity
  8
MECHANICAL1
100
AcDbVertex
100
AcDb2dVertex
 10
11.187
 20
8.266
 30
0.0
 42
1.0
  0
SEQEND
  5
1DE
100
AcDbEntity
  8
0
  0
POLYLINE
  5
1DF
100
AcDbEntity
  8
MECHANICAL1
100
AcDb2dPolyline
 66
     1
 10
0.0
 20
0.0
 30
0.0
 40
0.008
 41
0.008
 75
     8
  0
VERTEX
  5
1E0
100
AcDbEntity
  8
MECHANICAL1
100
AcDbVertex
100
AcDb2dVertex
 10
11.185
 20
8.266
 30
0.0
  0
VERTEX
  5
1E1
100
AcDbEntity
  8
MECHANICAL1
100
AcDbVertex
100
AcDb2dVertex
 10
11.185
 20
8.292
 30
0.0
  0
SEQEND
  5
1E2
100
AcDbEntity
  8
0
  0
POLYLINE
  5
1E3
100
AcDbEntity
  8
MECHANICAL1
100
AcDb2dPolyline
 66
     1
 10
0.0
 20
0.0
 30
0.0
 70
     1
 40
0.004
 41
0.004
 75
     8
  0
VERTEX
  5
1E4
100
AcDbEntity
  8
MECHANICAL1
100
AcDbVertex
100
AcDb2dVertex
 10
11.183
 20
8.266
 30
0.0
 42
1.0
  0
VERTEX
  5
1E5
100
AcDbEntity
  8
MECHANICAL1
100
AcDbVertex
100
AcDb2dVertex
 10
11.187
 20
8.266
 30
0.0
 42
1.0
  0
SEQEND
  5
1E6
100
AcDbEntity
  8
0
  0
POLYLINE
  5
1E7
100
AcDbEntity
  8
MECHANICAL1
100
AcDb2dPolyline
 66
     1
 10
0.0
 20
0.0
 30
0.0
 70
     1
 40
0.004
 41
0.004
 75
     8
  0
VERTEX
  5
1E8
100
AcDbEntity
  8
MECHANICAL1
100
AcDbVertex
100
AcDb2dVertex
 10
11.183
 20
8.292
 30
0.0
 42
1.0
  0
VERTEX
  5
1E9
100
AcDbEntity
  8
MECHANICAL1
100
AcDbVertex
100
AcDb2dVertex
 10
11.187
 20
8.292
 30
0.0
 42
1.0
  0
SEQEND
  5
1EA
100
AcDbEntity
  8
0
  0
POLYLINE
  5
1EB
100
AcDbEntity
  8
MECHANICAL1
100
AcDb2dPolyline
 66
     1
 10
0.0
 20
0.0
 30
0.0
 40
0.008
 41
0.008
 75
     8
  0
VERTEX
  5
1EC
100
AcDbEntity
  8
MECHANICAL1
100
AcDbVertex
100
AcDb2dVertex
 10
11.185
 20
8.266
 30
0.0
  0
VERTEX
  5
1ED
100
AcDbEntity
  8
MECHANICAL1
100
AcDbVertex
100
AcDb2dVertex
 10
11.483
 20
8.564
 30
0.0
  0
SEQEND
  5
1EE
100
AcDbEntity
  8
0
  0
POLYLINE
  5
1EF
100
AcDbEntity
  8
MECHANICAL1
100
AcDb2dPolyline
 66
     1
 10
0.0
 20
0.0
 30
0.0
 70
     1
 40
0.004
 41
0.004
 75
     8
  0
VERTEX
  5
1F0
100
AcDbEntity
  8
MECHANICAL1
100
AcDbVertex
100
AcDb2dVertex
 10
11.183
 20
8.266
 30
0.0
 42
1.0
  0
VERTEX
  5
1F1
100
AcDbEntity
  8
MECHANICAL1
100
AcDbVertex
100
AcDb2dVertex
 10
11.187
 20
8.266
 30
0.0
 42
1.0
  0
SEQEND
  5
1F2
100
AcDbEntity
  8
0
  0
POLYLINE
  5
1F3
100
AcDbEntity
  8
MECHANICAL1
100
AcDb2dPolyline
 66
     1
 10
0.0
 20
0.0
 30
0.0
 70
     1
 40
0.004
 41
0.004
 75
     8
  0
VERTEX
  5
1F4
100
AcDbEntity
  8
MECHANICAL1
100
AcDbVertex
100
AcDb2dVertex
 10
11.481
 20
8.564
 30
0.0
 42
1.0
  0
VERTEX
  5
1F5
100
AcDbEntity
  8
MECHANICAL1
100
AcDbVertex
100
AcDb2dVertex
 10
11.485
 20
8.564
 30
0.0
 42
1.0
  0
SEQEND
  5
1F6
100
AcDbEntity
  8
0
  0
POLYLINE
  5
1F7
100
AcDbEntity
  8
MECHANICAL1
100
AcDb2dPolyline
 66
     1
 10
0.0
 20
0.0
 30
0.0
 40
0.008
 41
0.008
 75
     8
  0
VERTEX
  5
1F8
100
AcDbEntity
  8
MECHANICAL1
100
AcDbVertex
100
AcDb2dVertex
 10
11.223
 20
8.326
 30
0.0
  0
VERTEX
  5
1F9
100
AcDbEntity
  8
MECHANICAL1
100
AcDbVertex
100
AcDb2dVertex
 10
11.245
 20
8.326
 30
0.0
  0
SEQEND
  5
1FA
100
AcDbEntity
  8
0
  0
POLYLINE
  5
1FB
100
AcDbEntity
  8
MECHANICAL1
100
AcDb2dPolyline
 66
     1
 10
0.0
 20
0.0
 30
0.0
 70
     1
 40
0.004
 41
0.004
 75
     8
  0
VERTEX
  5
1FC
100
AcDbEntity
  8
MECHANICAL1
100
AcDbVertex
100
AcDb2dVertex
 10
11.221
 20
8.326
 30
0.0
 42
1.0
  0
VERTEX
  5
1FD
100
AcDbEntity
  8
MECHANICAL1
100
AcDbVertex
100
AcDb2dVertex
 10
11.225
 20
8.326
 30
0.0
 42
1.0
  0
SEQEND
  5
1FE
100
AcDbEntity
  8
0
  0
POLYLINE
  5
1FF
100
AcDbEntity
  8
MECHANICAL1
100
AcDb2dPolyline
 66
     1
 10
0.0
 20
0.0
 30
0.0
 70
     1
 40
0.004
 41
0.004
 75
     8
  0
VERTEX
  5
200
100
AcDbEntity
  8
MECHANICAL1
100
AcDbVertex
100
AcDb2dVertex
 10
11.243
 20
8.326
 30
0.0
 42
1.0
  0
VERTEX
  5
201
100
AcDbEntity
  8
MECHANICAL1
100
AcDbVertex
100
AcDb2dVertex
 10
11.247
 20
8.326
 30
0.0
 42
1.0
  0
SEQEND
  5
202
100
AcDbEntity
  8
0
  0
POLYLINE
  5
203
100
AcDbEntity
  8
MECHANICAL1
100
AcDb2dPolyline
 66
     1
 10
0.0
 20
0.0
 30
0.0
 40
0.008
 41
0.008
 75
     8
  0
VERTEX
  5
204
100
AcDbEntity
  8
MECHANICAL1
100
AcDbVertex
100
AcDb2dVertex
 10
11.245
 20
8.304
 30
0.0
  0
VERTEX
  5
205
100
AcDbEntity
  8
MECHANICAL1
100
AcDbVertex
100
AcDb2dVertex
 10
11.245
 20
8.326
 30
0.0
  0
SEQEND
  5
206
100
AcDbEntity
  8
0
  0
POLYLINE
  5
207
100
AcDbEntity
  8
MECHANICAL1
100
AcDb2dPolyline
 66
     1
 10
0.0
 20
0.0
 30
0.0
 70
     1
 40
0.004
 41
0.004
 75
     8
  0
VERTEX
  5
208
100
AcDbEntity
  8
MECHANICAL1
100
AcDbVertex
100
AcDb2dVertex
 10
11.243
 20
8.304
 30
0.0
 42
1.0
  0
VERTEX
  5
209
100
AcDbEntity
  8
MECHANICAL1
100
AcDbVertex
100
AcDb2dVertex
 10
11.247
 20
8.304
 30
0.0
 42
1.0
  0
SEQEND
  5
20A
100
AcDbEntity
  8
0
  0
POLYLINE
  5
20B
100
AcDbEntity
  8
MECHANICAL1
100
AcDb2dPolyline
 66
     1
 10
0.0
 20
0.0
 30
0.0
 70
     1
 40
0.004
 41
0.004
 75
     8
  0
VERTEX
  5
20C
100
AcDbEntity
  8
MECHANICAL1
100
AcDbVertex
100
AcDb2dVertex
 10
11.243
 20
8.326
 30
0.0
 42
1.0
  0
VERTEX
  5
20D
100
AcDbEntity
  8
MECHANICAL1
100
AcDbVertex
100
AcDb2dVertex
 10
11.247
 20
8.326
 30
0.0
 42
1.0
  0
SEQEND
  5
20E
100
AcDbEntity
  8
0
  0
POLYLINE
  5
20F
100
AcDbEntity
  8
MECHANICAL1
100
AcDb2dPolyline
 66
     1
 10
0.0
 20
0.0
 30
0.0
 40
0.008
 41
0.008
 75
     8
  0
VERTEX
  5
210
100
AcDbEntity
  8
MECHANICAL1
100
AcDbVertex
100
AcDb2dVertex
 10
11.483
 20
8.564
 30
0.0
  0
VERTEX
  5
211
100
AcDbEntity
  8
MECHANICAL1
100
AcDbVertex
100
AcDb2dVertex
 10
11.562
 20
8.564
 30
0.0
  0
SEQEND
  5
212
100
AcDbEntity
  8
0
  0
POLYLINE
  5
213
100
AcDbEntity
  8
MECHANICAL1
100
AcDb2dPolyline
 66
     1
 10
0.0
 20
0.0
 30
0.0
 70
     1
 40
0.004
 41
0.004
 75
     8
  0
VERTEX
  5
214
100
AcDbEntity
  8
MECHANICAL1
100
AcDbVertex
100
AcDb2dVertex
 10
11.481
 20
8.564
 30
0.0
 42
1.0
  0
VERTEX
  5
215
100
AcDbEntity
  8
MECHANICAL1
100
AcDbVertex
100
AcDb2dVertex
 10
11.485
 20
8.564
 30
0.0
 42
1.0
  0
SEQEND
  5
216
100
AcDbEntity
  8
0
  0
POLYLINE
  5
217
100
AcDbEntity
  8
MECHANICAL1
100
AcDb2dPolyline
 66
     1
 10
0.0
 20
0.0
 30
0.0
 70
     1
 40
0.004
 41
0.004
 75
     8
  0
VERTEX
  5
218
100
AcDbEntity
  8
MECHANICAL1
100
AcDbVertex
100
AcDb2dVertex
 10
11.56
 20
8.564
 30
0.0
 42
1.0
  0
VERTEX
  5
219
100
AcDbEntity
  8
MECHANICAL1
100
AcDbVertex
100
AcDb2dVertex
 10
11.564
 20
8.564
 30
0.0
 42
1.0
  0
SEQEND
  5
21A
100
AcDbEntity
  8
0
  0
POLYLINE
  5
21B
100
AcDbEntity
  8
MECHANICAL1
100
AcDb2dPolyline
 66
     1
 10
0.0
 20
0.0
 30
0.0
 40
0.008
 41
0.008
 75
     8
  0
VERTEX
  5
21C
100
AcDbEntity
  8
MECHANICAL1
100
AcDbVertex
100
AcDb2dVertex
 10
5.79
 20
9.699
 30
0.0
  0
VERTEX
  5
21D
100
AcDbEntity
  8
MECHANICAL1
100
AcDbVertex
100
AcDb2dVertex
 10
5.8
 20
9.679
 30
0.0
  0
SEQEND
  5
21E
100
AcDbEntity
  8
0
  0
POLYLINE
  5
21F
100
AcDbEntity
  8
MECHANICAL1
100
AcDb2dPolyline
 66
     1
 10
0.0
 20
0.0
 30
0.0
 70
     1
 40
0.004
 41
0.004
 75
     8
  0
VERTEX
  5
220
100
AcDbEntity
  8
MECHANICAL1
100
AcDbVertex
100
AcDb2dVertex
 10
5.788
 20
9.699
 30
0.0
 42
1.0
  0
VERTEX
  5
221
100
AcDbEntity
  8
MECHANICAL1
100
AcDbVertex
100
AcDb2dVertex
 10
5.792
 20
9.699
 30
0.0
 42
1.0
  0
SEQEND
  5
222
100
AcDbEntity
  8
0
  0
POLYLINE
  5
223
100
AcDbEntity
  8
MECHANICAL1
100
AcDb2dPolyline
 66
     1
 10
0.0
 20
0.0
 30
0.0
 70
     1
 40
0.004
 41
0.004
 75
     8
  0
VERTEX
  5
224
100
AcDbEntity
  8
MECHANICAL1
100
AcDbVertex
100
AcDb2dVertex
 10
5.798
 20
9.679
 30
0.0
 42
1.0
  0
VERTEX
  5
225
100
AcDbEntity
  8
MECHANICAL1
100
AcDbVertex
100
AcDb2dVertex
 10
5.802
 20
9.679
 30
0.0
 42
1.0
  0
SEQEND
  5
226
100
AcDbEntity
  8
0
  0
POLYLINE
  5
227
100
AcDbEntity
  8
MECHANICAL1
100
AcDb2dPolyline
 66
     1
 10
0.0
 20
0.0
 30
0.0
 40
0.008
 41
0.008
 75
     8
  0
VERTEX
  5
228
100
AcDbEntity
  8
MECHANICAL1
100
AcDbVertex
100
AcDb2dVertex
 10
5.8
 20
9.679
 30
0.0
  0
VERTEX
  5
229
100
AcDbEntity
  8
MECHANICAL1
100
AcDbVertex
100
AcDb2dVertex
 10
5.81
 20
9.699
 30
0.0
  0
SEQEND
  5
22A
100
AcDbEntity
  8
0
  0
POLYLINE
  5
22B
100
AcDbEntity
  8
MECHANICAL1
100
AcDb2dPolyline
 66
     1
 10
0.0
 20
0.0
 30
0.0
 70
     1
 40
0.004
 41
0.004
 75
     8
  0
VERTEX
  5
22C
100
AcDbEntity
  8
MECHANICAL1
100
AcDbVertex
100
AcDb2dVertex
 10
5.798
 20
9.679
 30
0.0
 42
1.0
  0
VERTEX
  5
22D
100
AcDbEntity
  8
MECHANICAL1
100
AcDbVertex
100
AcDb2dVertex
 10
5.802
 20
9.679
 30
0.0
 42
1.0
  0
SEQEND
  5
22E
100
AcDbEntity
  8
0
  0
POLYLINE
  5
22F
100
AcDbEntity
  8
MECHANICAL1
100
AcDb2dPolyline
 66
     1
 10
0.0
 20
0.0
 30
0.0
 70
     1
 40
0.004
 41
0.004
 75
     8
  0
VERTEX
  5
230
100
AcDbEntity
  8
MECHANICAL1
100
AcDbVertex
100
AcDb2dVertex
 10
5.808
 20
9.699
 30
0.0
 42
1.0
  0
VERTEX
  5
231
100
AcDbEntity
  8
MECHANICAL1
100
AcDbVertex
100
AcDb2dVertex
 10
5.812
 20
9.699
 30
0.0
 42
1.0
  0
SEQEND
  5
232
100
AcDbEntity
  8
0
  0
POLYLINE
  5
233
100
AcDbEntity
  8
MECHANICAL1
100
AcDb2dPolyline
 66
     1
 10
0.0
 20
0.0
 30
0.0
 40
0.008
 41
0.008
 75
     8
  0
VERTEX
  5
234
100
AcDbEntity
  8
MECHANICAL1
100
AcDbVertex
100
AcDb2dVertex
 10
5.8
 20
9.679
 30
0.0
  0
VERTEX
  5
235
100
AcDbEntity
  8
MECHANICAL1
100
AcDbVertex
100
AcDb2dVertex
 10
5.8
 20
9.739
 30
0.0
  0
SEQEND
  5
236
100
AcDbEntity
  8
0
  0
POLYLINE
  5
237
100
AcDbEntity
  8
MECHANICAL1
100
AcDb2dPolyline
 66
     1
 10
0.0
 20
0.0
 30
0.0
 70
     1
 40
0.004
 41
0.004
 75
     8
  0
VERTEX
  5
238
100
AcDbEntity
  8
MECHANICAL1
100
AcDbVertex
100
AcDb2dVertex
 10
5.798
 20
9.679
 30
0.0
 42
1.0
  0
VERTEX
  5
239
100
AcDbEntity
  8
MECHANICAL1
100
AcDbVertex
100
AcDb2dVertex
 10
5.802
 20
9.679
 30
0.0
 42
1.0
  0
SEQEND
  5
23A
100
AcDbEntity
  8
0
  0
POLYLINE
  5
23B
100
AcDbEntity
  8
MECHANICAL1
100
AcDb2dPolyline
 66
     1
 10
0.0
 20
0.0
 30
0.0
 70
     1
 40
0.004
 41
0.004
 75
     8
  0
VERTEX
  5
23C
100
AcDbEntity
  8
MECHANICAL1
100
AcDbVertex
100
AcDb2dVertex
 10
5.798
 20
9.739
 30
0.0
 42
1.0
  0
VERTEX
  5
23D
100
AcDbEntity
  8
MECHANICAL1
100
AcDbVertex
100
AcDb2dVertex
 10
5.802
 20
9.739
 30
0.0
 42
1.0
  0
SEQEND
  5
23E
100
AcDbEntity
  8
0
  0
POLYLINE
  5
23F
100
AcDbEntity
  8
MECHANICAL1
100
AcDb2dPolyline
 66
     1
 10
0.0
 20
0.0
 30
0.0
 40
0.008
 41
0.008
 75
     8
  0
VERTEX
  5
240
100
AcDbEntity
  8
MECHANICAL1
100
AcDbVertex
100
AcDb2dVertex
 10
5.8
 20
9.55
 30
0.0
  0
VERTEX
  5
241
100
AcDbEntity
  8
MECHANICAL1
100
AcDbVertex
100
AcDb2dVertex
 10
5.81
 20
9.53
 30
0.0
  0
SEQEND
  5
242
100
AcDbEntity
  8
0
  0
POLYLINE
  5
243
100
AcDbEntity
  8
MECHANICAL1
100
AcDb2dPolyline
 66
     1
 10
0.0
 20
0.0
 30
0.0
 70
     1
 40
0.004
 41
0.004
 75
     8
  0
VERTEX
  5
244
100
AcDbEntity
  8
MECHANICAL1
100
AcDbVertex
100
AcDb2dVertex
 10
5.798
 20
9.55
 30
0.0
 42
1.0
  0
VERTEX
  5
245
100
AcDbEntity
  8
MECHANICAL1
100
AcDbVertex
100
AcDb2dVertex
 10
5.802
 20
9.55
 30
0.0
 42
1.0
  0
SEQEND
  5
246
100
AcDbEntity
  8
0
  0
POLYLINE
  5
247
100
AcDbEntity
  8
MECHANICAL1
100
AcDb2dPolyline
 66
     1
 10
0.0
 20
0.0
 30
0.0
 70
     1
 40
0.004
 41
0.004
 75
     8
  0
VERTEX
  5
248
100
AcDbEntity
  8
MECHANICAL1
100
AcDbVertex
100
AcDb2dVertex
 10
5.808
 20
9.53
 30
0.0
 42
1.0
  0
VERTEX
  5
249
100
AcDbEntity
  8
MECHANICAL1
100
AcDbVertex
100
AcDb2dVertex
 10
5.812
 20
9.53
 30
0.0
 42
1.0
  0
SEQEND
  5
24A
100
AcDbEntity
  8
0
  0
POLYLINE
  5
24B
100
AcDbEntity
  8
MECHANICAL1
100
AcDb2dPolyline
 66
     1
 10
0.0
 20
0.0
 30
0.0
 40
0.008
 41
0.008
 75
     8
  0
VERTEX
  5
24C
100
AcDbEntity
  8
MECHANICAL1
100
AcDbVertex
100
AcDb2dVertex
 10
5.79
 20
9.53
 30
0.0
  0
VERTEX
  5
24D
100
AcDbEntity
  8
MECHANICAL1
100
AcDbVertex
100
AcDb2dVertex
 10
5.8
 20
9.55
 30
0.0
  0
SEQEND
  5
24E
100
AcDbEntity
  8
0
  0
POLYLINE
  5
24F
100
AcDbEntity
  8
MECHANICAL1
100
AcDb2dPolyline
 66
     1
 10
0.0
 20
0.0
 30
0.0
 70
     1
 40
0.004
 41
0.004
 75
     8
  0
VERTEX
  5
250
100
AcDbEntity
  8
MECHANICAL1
100
AcDbVertex
100
AcDb2dVertex
 10
5.788
 20
9.53
 30
0.0
 42
1.0
  0
VERTEX
  5
251
100
AcDbEntity
  8
MECHANICAL1
100
AcDbVertex
100
AcDb2dVertex
 10
5.792
 20
9.53
 30
0.0
 42
1.0
  0
SEQEND
  5
252
100
AcDbEntity
  8
0
  0
POLYLINE
  5
253
100
AcDbEntity
  8
MECHANICAL1
100
AcDb2dPolyline
 66
     1
 10
0.0
 20
0.0
 30
0.0
 70
     1
 40
0.004
 41
0.004
 75
     8
  0
VERTEX
  5
254
100
AcDbEntity
  8
MECHANICAL1
100
AcDbVertex
100
AcDb2dVertex
 10
5.798
 20
9.55
 30
0.0
 42
1.0
  0
VERTEX
  5
255
100
AcDbEntity
  8
MECHANICAL1
100
AcDbVertex
100
AcDb2dVertex
 10
5.802
 20
9.55
 30
0.0
 42
1.0
  0
SEQEND
  5
256
100
AcDbEntity
  8
0
  0
POLYLINE
  5
257
100
AcDbEntity
  8
MECHANICAL1
100
AcDb2dPolyline
 66
     1
 10
0.0
 20
0.0
 30
0.0
 40
0.008
 41
0.008
 75
     8
  0
VERTEX
  5
258
100
AcDbEntity
  8
MECHANICAL1
100
AcDbVertex
100
AcDb2dVertex
 10
5.8
 20
9.49
 30
0.0
  0
VERTEX
  5
259
100
AcDbEntity
  8
MECHANICAL1
100
AcDbVertex
100
AcDb2dVertex
 10
5.8
 20
9.55
 30
0.0
  0
SEQEND
  5
25A
100
AcDbEntity
  8
0
  0
POLYLINE
  5
25B
100
AcDbEntity
  8
MECHANICAL1
100
AcDb2dPolyline
 66
     1
 10
0.0
 20
0.0
 30
0.0
 70
     1
 40
0.004
 41
0.004
 75
     8
  0
VERTEX
  5
25C
100
AcDbEntity
  8
MECHANICAL1
100
AcDbVertex
100
AcDb2dVertex
 10
5.798
 20
9.49
 30
0.0
 42
1.0
  0
VERTEX
  5
25D
100
AcDbEntity
  8
MECHANICAL1
100
AcDbVertex
100
AcDb2dVertex
 10
5.802
 20
9.49
 30
0.0
 42
1.0
  0
SEQEND
  5
25E
100
AcDbEntity
  8
0
  0
POLYLINE
  5
25F
100
AcDbEntity
  8
MECHANICAL1
100
AcDb2dPolyline
 66
     1
 10
0.0
 20
0.0
 30
0.0
 70
     1
 40
0.004
 41
0.004
 75
     8
  0
VERTEX
  5
260
100
AcDbEntity
  8
MECHANICAL1
100
AcDbVertex
100
AcDb2dVertex
 10
5.798
 20
9.55
 30
0.0
 42
1.0
  0
VERTEX
  5
261
100
AcDbEntity
  8
MECHANICAL1
100
AcDbVertex
100
AcDb2dVertex
 10
5.802
 20
9.55
 30
0.0
 42
1.0
  0
SEQEND
  5
262
100
AcDbEntity
  8
0
  0
POLYLINE
  5
263
100
AcDbEntity
  8
MECHANICAL1
100
AcDb2dPolyline
 66
     1
 10
0.0
 20
0.0
 30
0.0
 40
0.008
 41
0.008
 75
     8
  0
VERTEX
  5
264
100
AcDbEntity
  8
MECHANICAL1
100
AcDbVertex
100
AcDb2dVertex
 10
5.699
 20
9.55
 30
0.0
  0
VERTEX
  5
265
100
AcDbEntity
  8
MECHANICAL1
100
AcDbVertex
100
AcDb2dVertex
 10
6.196
 20
9.55
 30
0.0
  0
SEQEND
  5
266
100
AcDbEntity
  8
0
  0
POLYLINE
  5
267
100
AcDbEntity
  8
MECHANICAL1
100
AcDb2dPolyline
 66
     1
 10
0.0
 20
0.0
 30
0.0
 70
     1
 40
0.004
 41
0.004
 75
     8
  0
VERTEX
  5
268
100
AcDbEntity
  8
MECHANICAL1
100
AcDbVertex
100
AcDb2dVertex
 10
5.697
 20
9.55
 30
0.0
 42
1.0
  0
VERTEX
  5
269
100
AcDbEntity
  8
MECHANICAL1
100
AcDbVertex
100
AcDb2dVertex
 10
5.701
 20
9.55
 30
0.0
 42
1.0
  0
SEQEND
  5
26A
100
AcDbEntity
  8
0
  0
POLYLINE
  5
26B
100
AcDbEntity
  8
MECHANICAL1
100
AcDb2dPolyline
 66
     1
 10
0.0
 20
0.0
 30
0.0
 70
     1
 40
0.004
 41
0.004
 75
     8
  0
VERTEX
  5
26C
100
AcDbEntity
  8
MECHANICAL1
100
AcDbVertex
100
AcDb2dVertex
 10
6.194
 20
9.55
 30
0.0
 42
1.0
  0
VERTEX
  5
26D
100
AcDbEntity
  8
MECHANICAL1
100
AcDbVertex
100
AcDb2dVertex
 10
6.198
 20
9.55
 30
0.0
 42
1.0
  0
SEQEND
  5
26E
100
AcDbEntity
  8
0
  0
POLYLINE
  5
26F
100
AcDbEntity
  8
MECHANICAL1
100
AcDb2dPolyline
 66
     1
 10
0.0
 20
0.0
 30
0.0
 40
0.008
 41
0.008
 75
     8
  0
VERTEX
  5
270
100
AcDbEntity
  8
MECHANICAL1
100
AcDbVertex
100
AcDb2dVertex
 10
6.196
 20
9.55
 30
0.0
  0
VERTEX
  5
271
100
AcDbEntity
  8
MECHANICAL1
100
AcDbVertex
100
AcDb2dVertex
 10
6.829
 20
9.55
 30
0.0
  0
SEQEND
  5
272
100
AcDbEntity
  8
0
  0
POLYLINE
  5
273
100
AcDbEntity
  8
MECHANICAL1
100
AcDb2dPolyline
 66
     1
 10
0.0
 20
0.0
 30
0.0
 70
     1
 40
0.004
 41
0.004
 75
     8
  0
VERTEX
  5
274
100
AcDbEntity
  8
MECHANICAL1
100
AcDbVertex
100
AcDb2dVertex
 10
6.194
 20
9.55
 30
0.0
 42
1.0
  0
VERTEX
  5
275
100
AcDbEntity
  8
MECHANICAL1
100
AcDbVertex
100
AcDb2dVertex
 10
6.198
 20
9.55
 30
0.0
 42
1.0
  0
SEQEND
  5
276
100
AcDbEntity
  8
0
  0
POLYLINE
  5
277
100
AcDbEntity
  8
MECHANICAL1
100
AcDb2dPolyline
 66
     1
 10
0.0
 20
0.0
 30
0.0
 70
     1
 40
0.004
 41
0.004
 75
     8
  0
VERTEX
  5
278
100
AcDbEntity
  8
MECHANICAL1
100
AcDbVertex
100
AcDb2dVertex
 10
6.827
 20
9.55
 30
0.0
 42
1.0
  0
VERTEX
  5
279
100
AcDbEntity
  8
MECHANICAL1
100
AcDbVertex
100
AcDb2dVertex
 10
6.831
 20
9.55
 30
0.0
 42
1.0
  0
SEQEND
  5
27A
100
AcDbEntity
  8
0
  0
POLYLINE
  5
27B
100
AcDbEntity
  8
MECHANICAL1
100
AcDb2dPolyline
 66
     1
 10
0.0
 20
0.0
 30
0.0
 40
0.008
 41
0.008
 75
     8
  0
VERTEX
  5
27C
100
AcDbEntity
  8
MECHANICAL1
100
AcDbVertex
100
AcDb2dVertex
 10
6.846
 20
9.55
 30
0.0
  0
VERTEX
  5
27D
100
AcDbEntity
  8
MECHANICAL1
100
AcDbVertex
100
AcDb2dVertex
 10
6.902
 20
9.551
 30
0.0
  0
SEQEND
  5
27E
100
AcDbEntity
  8
0
  0
POLYLINE
  5
27F
100
AcDbEntity
  8
MECHANICAL1
100
AcDb2dPolyline
 66
     1
 10
0.0
 20
0.0
 30
0.0
 70
     1
 40
0.004
 41
0.004
 75
     8
  0
VERTEX
  5
280
100
AcDbEntity
  8
MECHANICAL1
100
AcDbVertex
100
AcDb2dVertex
 10
6.844
 20
9.55
 30
0.0
 42
1.0
  0
VERTEX
  5
281
100
AcDbEntity
  8
MECHANICAL1
100
AcDbVertex
100
AcDb2dVertex
 10
6.848
 20
9.55
 30
0.0
 42
1.0
  0
SEQEND
  5
282
100
AcDbEntity
  8
0
  0
POLYLINE
  5
283
100
AcDbEntity
  8
MECHANICAL1
100
AcDb2dPolyline
 66
     1
 10
0.0
 20
0.0
 30
0.0
 70
     1
 40
0.004
 41
0.004
 75
     8
  0
VERTEX
  5
284
100
AcDbEntity
  8
MECHANICAL1
100
AcDbVertex
100
AcDb2dVertex
 10
6.9
 20
9.551
 30
0.0
 42
1.0
  0
VERTEX
  5
285
100
AcDbEntity
  8
MECHANICAL1
100
AcDbVertex
100
AcDb2dVertex
 10
6.904
 20
9.551
 30
0.0
 42
1.0
  0
SEQEND
  5
286
100
AcDbEntity
  8
0
  0
POLYLINE
  5
287
100
AcDbEntity
  8
MECHANICAL1
100
AcDb2dPolyline
 66
     1
 10
0.0
 20
0.0
 30
0.0
 40
0.008
 41
0.008
 75
     8
  0
VERTEX
  5
288
100
AcDbEntity
  8
MECHANICAL1
100
AcDbVertex
100
AcDb2dVertex
 10
6.924
 20
9.55
 30
0.0
  0
VERTEX
  5
289
100
AcDbEntity
  8
MECHANICAL1
100
AcDbVertex
100
AcDb2dVertex
 10
6.999
 20
9.551
 30
0.0
  0
SEQEND
  5
28A
100
AcDbEntity
  8
0
  0
POLYLINE
  5
28B
100
AcDbEntity
  8
MECHANICAL1
100
AcDb2dPolyline
 66
     1
 10
0.0
 20
0.0
 30
0.0
 70
     1
 40
0.004
 41
0.004
 75
     8
  0
VERTEX
  5
28C
100
AcDbEntity
  8
MECHANICAL1
100
AcDbVertex
100
AcDb2dVertex
 10
6.922
 20
9.55
 30
0.0
 42
1.0
  0
VERTEX
  5
28D
100
AcDbEntity
  8
MECHANICAL1
100
AcDbVertex
100
AcDb2dVertex
 10
6.926
 20
9.55
 30
0.0
 42
1.0
  0
SEQEND
  5
28E
100
AcDbEntity
  8
0
  0
POLYLINE
  5
28F
100
AcDbEntity
  8
MECHANICAL1
100
AcDb2dPolyline
 66
     1
 10
0.0
 20
0.0
 30
0.0
 70
     1
 40
0.004
 41
0.004
 75
     8
  0
VERTEX
  5
290
100
AcDbEntity
  8
MECHANICAL1
100
AcDbVertex
100
AcDb2dVertex
 10
6.997
 20
9.551
 30
0.0
 42
1.0
  0
VERTEX
  5
291
100
AcDbEntity
  8
MECHANICAL1
100
AcDbVertex
100
AcDb2dVertex
 10
7.001
 20
9.551
 30
0.0
 42
1.0
  0
SEQEND
  5
292
100
AcDbEntity
  8
0
  0
POLYLINE
  5
293
100
AcDbEntity
  8
MECHANICAL1
100
AcDb2dPolyline
 66
     1
 10
0.0
 20
0.0
 30
0.0
 40
0.008
 41
0.008
 75
     8
  0
VERTEX
  5
294
100
AcDbEntity
  8
MECHANICAL1
100
AcDbVertex
100
AcDb2dVertex
 10
3.5
 20
9.679
 30
0.0
  0
VERTEX
  5
295
100
AcDbEntity
  8
MECHANICAL1
100
AcDbVertex
100
AcDb2dVertex
 10
6.149
 20
9.679
 30
0.0
  0
SEQEND
  5
296
100
AcDbEntity
  8
0
  0
POLYLINE
  5
297
100
AcDbEntity
  8
MECHANICAL1
100
AcDb2dPolyline
 66
     1
 10
0.0
 20
0.0
 30
0.0
 70
     1
 40
0.004
 41
0.004
 75
     8
  0
VERTEX
  5
298
100
AcDbEntity
  8
MECHANICAL1
100
AcDbVertex
100
AcDb2dVertex
 10
3.498
 20
9.679
 30
0.0
 42
1.0
  0
VERTEX
  5
299
100
AcDbEntity
  8
MECHANICAL1
100
AcDbVertex
100
AcDb2dVertex
 10
3.502
 20
9.679
 30
0.0
 42
1.0
  0
SEQEND
  5
29A
100
AcDbEntity
  8
0
  0
POLYLINE
  5
29B
100
AcDbEntity
  8
MECHANICAL1
100
AcDb2dPolyline
 66
     1
 10
0.0
 20
0.0
 30
0.0
 70
     1
 40
0.004
 41
0.004
 75
     8
  0
VERTEX
  5
29C
100
AcDbEntity
  8
MECHANICAL1
100
AcDbVertex
100
AcDb2dVertex
 10
6.147
 20
9.679
 30
0.0
 42
1.0
  0
VERTEX
  5
29D
100
AcDbEntity
  8
MECHANICAL1
100
AcDbVertex
100
AcDb2dVertex
 10
6.151
 20
9.679
 30
0.0
 42
1.0
  0
SEQEND
  5
29E
100
AcDbEntity
  8
0
  0
POLYLINE
  5
29F
100
AcDbEntity
  8
MECHANICAL1
100
AcDb2dPolyline
 66
     1
 10
0.0
 20
0.0
 30
0.0
 40
0.008
 41
0.008
 75
     8
  0
VERTEX
  5
2A0
100
AcDbEntity
  8
MECHANICAL1
100
AcDbVertex
100
AcDb2dVertex
 10
5.642
 20
4.111
 30
0.0
  0
VERTEX
  5
2A1
100
AcDbEntity
  8
MECHANICAL1
100
AcDbVertex
100
AcDb2dVertex
 10
5.652
 20
4.131
 30
0.0
  0
SEQEND
  5
2A2
100
AcDbEntity
  8
0
  0
POLYLINE
  5
2A3
100
AcDbEntity
  8
MECHANICAL1
100
AcDb2dPolyline
 66
     1
 10
0.0
 20
0.0
 30
0.0
 70
     1
 40
0.004
 41
0.004
 75
     8
  0
VERTEX
  5
2A4
100
AcDbEntity
  8
MECHANICAL1
100
AcDbVertex
100
AcDb2dVertex
 10
5.64
 20
4.111
 30
0.0
 42
1.0
  0
VERTEX
  5
2A5
100
AcDbEntity
  8
MECHANICAL1
100
AcDbVertex
100
AcDb2dVertex
 10
5.644
 20
4.111
 30
0.0
 42
1.0
  0
SEQEND
  5
2A6
100
AcDbEntity
  8
0
  0
POLYLINE
  5
2A7
100
AcDbEntity
  8
MECHANICAL1
100
AcDb2dPolyline
 66
     1
 10
0.0
 20
0.0
 30
0.0
 70
     1
 40
0.004
 41
0.004
 75
     8
  0
VERTEX
  5
2A8
100
AcDbEntity
  8
MECHANICAL1
100
AcDbVertex
100
AcDb2dVertex
 10
5.65
 20
4.131
 30
0.0
 42
1.0
  0
VERTEX
  5
2A9
100
AcDbEntity
  8
MECHANICAL1
100
AcDbVertex
100
AcDb2dVertex
 10
5.654
 20
4.131
 30
0.0
 42
1.0
  0
SEQEND
  5
2AA
100
AcDbEntity
  8
0
  0
POLYLINE
  5
2AB
100
AcDbEntity
  8
MECHANICAL1
100
AcDb2dPolyline
 66
     1
 10
0.0
 20
0.0
 30
0.0
 40
0.008
 41
0.008
 75
     8
  0
VERTEX
  5
2AC
100
AcDbEntity
  8
MECHANICAL1
100
AcDbVertex
100
AcDb2dVertex
 10
5.632
 20
4.131
 30
0.0
  0
VERTEX
  5
2AD
100
AcDbEntity
  8
MECHANICAL1
100
AcDbVertex
100
AcDb2dVertex
 10
5.642
 20
4.111
 30
0.0
  0
SEQEND
  5
2AE
100
AcDbEntity
  8
0
  0
POLYLINE
  5
2AF
100
AcDbEntity
  8
MECHANICAL1
100
AcDb2dPolyline
 66
     1
 10
0.0
 20
0.0
 30
0.0
 70
     1
 40
0.004
 41
0.004
 75
     8
  0
VERTEX
  5
2B0
100
AcDbEntity
  8
MECHANICAL1
100
AcDbVertex
100
AcDb2dVertex
 10
5.63
 20
4.131
 30
0.0
 42
1.0
  0
VERTEX
  5
2B1
100
AcDbEntity
  8
MECHANICAL1
100
AcDbVertex
100
AcDb2dVertex
 10
5.634
 20
4.131
 30
0.0
 42
1.0
  0
SEQEND
  5
2B2
100
AcDbEntity
  8
0
  0
POLYLINE
  5
2B3
100
AcDbEntity
  8
MECHANICAL1
100
AcDb2dPolyline
 66
     1
 10
0.0
 20
0.0
 30
0.0
 70
     1
 40
0.004
 41
0.004
 75
     8
  0
VERTEX
  5
2B4
100
AcDbEntity
  8
MECHANICAL1
100
AcDbVertex
100
AcDb2dVertex
 10
5.64
 20
4.111
 30
0.0
 42
1.0
  0
VERTEX
  5
2B5
100
AcDbEntity
  8
MECHANICAL1
100
AcDbVertex
100
AcDb2dVertex
 10
5.644
 20
4.111
 30
0.0
 42
1.0
  0
SEQEND
  5
2B6
100
AcDbEntity
  8
0
  0
POLYLINE
  5
2B7
100
AcDbEntity
  8
MECHANICAL1
100
AcDb2dPolyline
 66
     1
 10
0.0
 20
0.0
 30
0.0
 40
0.008
 41
0.008
 75
     8
  0
VERTEX
  5
2B8
100
AcDbEntity
  8
MECHANICAL1
100
AcDbVertex
100
AcDb2dVertex
 10
5.642
 20
4.011
 30
0.0
  0
VERTEX
  5
2B9
100
AcDbEntity
  8
MECHANICAL1
100
AcDbVertex
100
AcDb2dVertex
 10
5.652
 20
3.991
 30
0.0
  0
SEQEND
  5
2BA
100
AcDbEntity
  8
0
  0
POLYLINE
  5
2BB
100
AcDbEntity
  8
MECHANICAL1
100
AcDb2dPolyline
 66
     1
 10
0.0
 20
0.0
 30
0.0
 70
     1
 40
0.004
 41
0.004
 75
     8
  0
VERTEX
  5
2BC
100
AcDbEntity
  8
MECHANICAL1
100
AcDbVertex
100
AcDb2dVertex
 10
5.64
 20
4.011
 30
0.0
 42
1.0
  0
VERTEX
  5
2BD
100
AcDbEntity
  8
MECHANICAL1
100
AcDbVertex
100
AcDb2dVertex
 10
5.644
 20
4.011
 30
0.0
 42
1.0
  0
SEQEND
  5
2BE
100
AcDbEntity
  8
0
  0
POLYLINE
  5
2BF
100
AcDbEntity
  8
MECHANICAL1
100
AcDb2dPolyline
 66
     1
 10
0.0
 20
0.0
 30
0.0
 70
     1
 40
0.004
 41
0.004
 75
     8
  0
VERTEX
  5
2C0
100
AcDbEntity
  8
MECHANICAL1
100
AcDbVertex
100
AcDb2dVertex
 10
5.65
 20
3.991
 30
0.0
 42
1.0
  0
VERTEX
  5
2C1
100
AcDbEntity
  8
MECHANICAL1
100
AcDbVertex
100
AcDb2dVertex
 10
5.654
 20
3.991
 30
0.0
 42
1.0
  0
SEQEND
  5
2C2
100
AcDbEntity
  8
0
  0
POLYLINE
  5
2C3
100
AcDbEntity
  8
MECHANICAL1
100
AcDb2dPolyline
 66
     1
 10
0.0
 20
0.0
 30
0.0
 40
0.008
 41
0.008
 75
     8
  0
VERTEX
  5
2C4
100
AcDbEntity
  8
MECHANICAL1
100
AcDbVertex
100
AcDb2dVertex
 10
5.632
 20
3.991
 30
0.0
  0
VERTEX
  5
2C5
100
AcDbEntity
  8
MECHANICAL1
100
AcDbVertex
100
AcDb2dVertex
 10
5.642
 20
4.011
 30
0.0
  0
SEQEND
  5
2C6
100
AcDbEntity
  8
0
  0
POLYLINE
  5
2C7
100
AcDbEntity
  8
MECHANICAL1
100
AcDb2dPolyline
 66
     1
 10
0.0
 20
0.0
 30
0.0
 70
     1
 40
0.004
 41
0.004
 75
     8
  0
VERTEX
  5
2C8
100
AcDbEntity
  8
MECHANICAL1
100
AcDbVertex
100
AcDb2dVertex
 10
5.63
 20
3.991
 30
0.0
 42
1.0
  0
VERTEX
  5
2C9
100
AcDbEntity
  8
MECHANICAL1
100
AcDbVertex
100
AcDb2dVertex
 10
5.634
 20
3.991
 30
0.0
 42
1.0
  0
SEQEND
  5
2CA
100
AcDbEntity
  8
0
  0
POLYLINE
  5
2CB
100
AcDbEntity
  8
MECHANICAL1
100
AcDb2dPolyline
 66
     1
 10
0.0
 20
0.0
 30
0.0
 70
     1
 40
0.004
 41
0.004
 75
     8
  0
VERTEX
  5
2CC
100
AcDbEntity
  8
MECHANICAL1
100
AcDbVertex
100
AcDb2dVertex
 10
5.64
 20
4.011
 30
0.0
 42
1.0
  0
VERTEX
  5
2CD
100
AcDbEntity
  8
MECHANICAL1
100
AcDbVertex
100
AcDb2dVertex
 10
5.644
 20
4.011
 30
0.0
 42
1.0
  0
SEQEND
  5
2CE
100
AcDbEntity
  8
0
  0
POLYLINE
  5
2CF
100
AcDbEntity
  8
MECHANICAL1
100
AcDb2dPolyline
 66
     1
 10
0.0
 20
0.0
 30
0.0
 40
0.008
 41
0.008
 75
     8
  0
VERTEX
  5
2D0
100
AcDbEntity
  8
MECHANICAL1
100
AcDbVertex
100
AcDb2dVertex
 10
5.642
 20
3.951
 30
0.0
  0
VERTEX
  5
2D1
100
AcDbEntity
  8
MECHANICAL1
100
AcDbVertex
100
AcDb2dVertex
 10
5.642
 20
4.011
 30
0.0
  0
SEQEND
  5
2D2
100
AcDbEntity
  8
0
  0
POLYLINE
  5
2D3
100
AcDbEntity
  8
MECHANICAL1
100
AcDb2dPolyline
 66
     1
 10
0.0
 20
0.0
 30
0.0
 70
     1
 40
0.004
 41
0.004
 75
     8
  0
VERTEX
  5
2D4
100
AcDbEntity
  8
MECHANICAL1
100
AcDbVertex
100
AcDb2dVertex
 10
5.64
 20
3.951
 30
0.0
 42
1.0
  0
VERTEX
  5
2D5
100
AcDbEntity
  8
MECHANICAL1
100
AcDbVertex
100
AcDb2dVertex
 10
5.644
 20
3.951
 30
0.0
 42
1.0
  0
SEQEND
  5
2D6
100
AcDbEntity
  8
0
  0
POLYLINE
  5
2D7
100
AcDbEntity
  8
MECHANICAL1
100
AcDb2dPolyline
 66
     1
 10
0.0
 20
0.0
 30
0.0
 70
     1
 40
0.004
 41
0.004
 75
     8
  0
VERTEX
  5
2D8
100
AcDbEntity
  8
MECHANICAL1
100
AcDbVertex
100
AcDb2dVertex
 10
5.64
 20
4.011
 30
0.0
 42
1.0
  0
VERTEX
  5
2D9
100
AcDbEntity
  8
MECHANICAL1
100
AcDbVertex
100
AcDb2dVertex
 10
5.644
 20
4.011
 30
0.0
 42
1.0
  0
SEQEND
  5
2DA
100
AcDbEntity
  8
0
  0
POLYLINE
  5
2DB
100
AcDbEntity
  8
MECHANICAL1
100
AcDb2dPolyline
 66
     1
 10
0.0
 20
0.0
 30
0.0
 40
0.008
 41
0.008
 75
     8
  0
VERTEX
  5
2DC
100
AcDbEntity
  8
MECHANICAL1
100
AcDbVertex
100
AcDb2dVertex
 10
5.642
 20
4.111
 30
0.0
  0
VERTEX
  5
2DD
100
AcDbEntity
  8
MECHANICAL1
100
AcDbVertex
100
AcDb2dVertex
 10
5.642
 20
4.161
 30
0.0
  0
SEQEND
  5
2DE
100
AcDbEntity
  8
0
  0
POLYLINE
  5
2DF
100
AcDbEntity
  8
MECHANICAL1
100
AcDb2dPolyline
 66
     1
 10
0.0
 20
0.0
 30
0.0
 70
     1
 40
0.004
 41
0.004
 75
     8
  0
VERTEX
  5
2E0
100
AcDbEntity
  8
MECHANICAL1
100
AcDbVertex
100
AcDb2dVertex
 10
5.64
 20
4.111
 30
0.0
 42
1.0
  0
VERTEX
  5
2E1
100
AcDbEntity
  8
MECHANICAL1
100
AcDbVertex
100
AcDb2dVertex
 10
5.644
 20
4.111
 30
0.0
 42
1.0
  0
SEQEND
  5
2E2
100
AcDbEntity
  8
0
  0
POLYLINE
  5
2E3
100
AcDbEntity
  8
MECHANICAL1
100
AcDb2dPolyline
 66
     1
 10
0.0
 20
0.0
 30
0.0
 70
     1
 40
0.004
 41
0.004
 75
     8
  0
VERTEX
  5
2E4
100
AcDbEntity
  8
MECHANICAL1
100
AcDbVertex
100
AcDb2dVertex
 10
5.64
 20
4.161
 30
0.0
 42
1.0
  0
VERTEX
  5
2E5
100
AcDbEntity
  8
MECHANICAL1
100
AcDbVertex
100
AcDb2dVertex
 10
5.644
 20
4.161
 30
0.0
 42
1.0
  0
SEQEND
  5
2E6
100
AcDbEntity
  8
0
  0
POLYLINE
  5
2E7
100
AcDbEntity
  8
MECHANICAL1
100
AcDb2dPolyline
 66
     1
 10
0.0
 20
0.0
 30
0.0
 40
0.008
 41
0.008
 75
     8
  0
VERTEX
  5
2E8
100
AcDbEntity
  8
MECHANICAL1
100
AcDbVertex
100
AcDb2dVertex
 10
5.57
 20
4.111
 30
0.0
  0
VERTEX
  5
2E9
100
AcDbEntity
  8
MECHANICAL1
100
AcDbVertex
100
AcDb2dVertex
 10
5.707
 20
4.111
 30
0.0
  0
SEQEND
  5
2EA
100
AcDbEntity
  8
0
  0
POLYLINE
  5
2EB
100
AcDbEntity
  8
MECHANICAL1
100
AcDb2dPolyline
 66
     1
 10
0.0
 20
0.0
 30
0.0
 70
     1
 40
0.004
 41
0.004
 75
     8
  0
VERTEX
  5
2EC
100
AcDbEntity
  8
MECHANICAL1
100
AcDbVertex
100
AcDb2dVertex
 10
5.568
 20
4.111
 30
0.0
 42
1.0
  0
VERTEX
  5
2ED
100
AcDbEntity
  8
MECHANICAL1
100
AcDbVertex
100
AcDb2dVertex
 10
5.572
 20
4.111
 30
0.0
 42
1.0
  0
SEQEND
  5
2EE
100
AcDbEntity
  8
0
  0
POLYLINE
  5
2EF
100
AcDbEntity
  8
MECHANICAL1
100
AcDb2dPolyline
 66
     1
 10
0.0
 20
0.0
 30
0.0
 70
     1
 40
0.004
 41
0.004
 75
     8
  0
VERTEX
  5
2F0
100
AcDbEntity
  8
MECHANICAL1
100
AcDbVertex
100
AcDb2dVertex
 10
5.705
 20
4.111
 30
0.0
 42
1.0
  0
VERTEX
  5
2F1
100
AcDbEntity
  8
MECHANICAL1
100
AcDbVertex
100
AcDb2dVertex
 10
5.709
 20
4.111
 30
0.0
 42
1.0
  0
SEQEND
  5
2F2
100
AcDbEntity
  8
0
  0
POLYLINE
  5
2F3
100
AcDbEntity
  8
MECHANICAL1
100
AcDb2dPolyline
 66
     1
 10
0.0
 20
0.0
 30
0.0
 40
0.008
 41
0.008
 75
     8
  0
VERTEX
  5
2F4
100
AcDbEntity
  8
MECHANICAL1
100
AcDbVertex
100
AcDb2dVertex
 10
5.707
 20
4.111
 30
0.0
  0
VERTEX
  5
2F5
100
AcDbEntity
  8
MECHANICAL1
100
AcDbVertex
100
AcDb2dVertex
 10
5.752
 20
4.066
 30
0.0
  0
SEQEND
  5
2F6
100
AcDbEntity
  8
0
  0
POLYLINE
  5
2F7
100
AcDbEntity
  8
MECHANICAL1
100
AcDb2dPolyline
 66
     1
 10
0.0
 20
0.0
 30
0.0
 70
     1
 40
0.004
 41
0.004
 75
     8
  0
VERTEX
  5
2F8
100
AcDbEntity
  8
MECHANICAL1
100
AcDbVertex
100
AcDb2dVertex
 10
5.705
 20
4.111
 30
0.0
 42
1.0
  0
VERTEX
  5
2F9
100
AcDbEntity
  8
MECHANICAL1
100
AcDbVertex
100
AcDb2dVertex
 10
5.709
 20
4.111
 30
0.0
 42
1.0
  0
SEQEND
  5
2FA
100
AcDbEntity
  8
0
  0
POLYLINE
  5
2FB
100
AcDbEntity
  8
MECHANICAL1
100
AcDb2dPolyline
 66
     1
 10
0.0
 20
0.0
 30
0.0
 70
     1
 40
0.004
 41
0.004
 75
     8
  0
VERTEX
  5
2FC
100
AcDbEntity
  8
MECHANICAL1
100
AcDbVertex
100
AcDb2dVertex
 10
5.75
 20
4.066
 30
0.0
 42
1.0
  0
VERTEX
  5
2FD
100
AcDbEntity
  8
MECHANICAL1
100
AcDbVertex
100
AcDb2dVertex
 10
5.754
 20
4.066
 30
0.0
 42
1.0
  0
SEQEND
  5
2FE
100
AcDbEntity
  8
0
  0
POLYLINE
  5
2FF
100
AcDbEntity
  8
MECHANICAL1
100
AcDb2dPolyline
 66
     1
 10
0.0
 20
0.0
 30
0.0
 40
0.008
 41
0.008
 75
     8
  0
VERTEX
  5
300
100
AcDbEntity
  8
MECHANICAL1
100
AcDbVertex
100
AcDb2dVertex
 10
5.752
 20
4.066
 30
0.0
  0
VERTEX
  5
301
100
AcDbEntity
  8
MECHANICAL1
100
AcDbVertex
100
AcDb2dVertex
 10
6.196
 20
4.066
 30
0.0
  0
SEQEND
  5
302
100
AcDbEntity
  8
0
  0
POLYLINE
  5
303
100
AcDbEntity
  8
MECHANICAL1
100
AcDb2dPolyline
 66
     1
 10
0.0
 20
0.0
 30
0.0
 70
     1
 40
0.004
 41
0.004
 75
     8
  0
VERTEX
  5
304
100
AcDbEntity
  8
MECHANICAL1
100
AcDbVertex
100
AcDb2dVertex
 10
5.75
 20
4.066
 30
0.0
 42
1.0
  0
VERTEX
  5
305
100
AcDbEntity
  8
MECHANICAL1
100
AcDbVertex
100
AcDb2dVertex
 10
5.754
 20
4.066
 30
0.0
 42
1.0
  0
SEQEND
  5
306
100
AcDbEntity
  8
0
  0
POLYLINE
  5
307
100
AcDbEntity
  8
MECHANICAL1
100
AcDb2dPolyline
 66
     1
 10
0.0
 20
0.0
 30
0.0
 70
     1
 40
0.004
 41
0.004
 75
     8
  0
VERTEX
  5
308
100
AcDbEntity
  8
MECHANICAL1
100
AcDbVertex
100
AcDb2dVertex
 10
6.194
 20
4.066
 30
0.0
 42
1.0
  0
VERTEX
  5
309
100
AcDbEntity
  8
MECHANICAL1
100
AcDbVertex
100
AcDb2dVertex
 10
6.198
 20
4.066
 30
0.0
 42
1.0
  0
SEQEND
  5
30A
100
AcDbEntity
  8
0
  0
POLYLINE
  5
30B
100
AcDbEntity
  8
MECHANICAL1
100
AcDb2dPolyline
 66
     1
 10
0.0
 20
0.0
 30
0.0
 40
0.008
 41
0.008
 75
     8
  0
VERTEX
  5
30C
100
AcDbEntity
  8
MECHANICAL1
100
AcDbVertex
100
AcDb2dVertex
 10
3.5
 20
4.011
 30
0.0
  0
VERTEX
  5
30D
100
AcDbEntity
  8
MECHANICAL1
100
AcDbVertex
100
AcDb2dVertex
 10
6.051
 20
4.011
 30
0.0
  0
SEQEND
  5
30E
100
AcDbEntity
  8
0
  0
POLYLINE
  5
30F
100
AcDbEntity
  8
MECHANICAL1
100
AcDb2dPolyline
 66
     1
 10
0.0
 20
0.0
 30
0.0
 70
     1
 40
0.004
 41
0.004
 75
     8
  0
VERTEX
  5
310
100
AcDbEntity
  8
MECHANICAL1
100
AcDbVertex
100
AcDb2dVertex
 10
3.498
 20
4.011
 30
0.0
 42
1.0
  0
VERTEX
  5
311
100
AcDbEntity
  8
MECHANICAL1
100
AcDbVertex
100
AcDb2dVertex
 10
3.502
 20
4.011
 30
0.0
 42
1.0
  0
SEQEND
  5
312
100
AcDbEntity
  8
0
  0
POLYLINE
  5
313
100
AcDbEntity
  8
MECHANICAL1
100
AcDb2dPolyline
 66
     1
 10
0.0
 20
0.0
 30
0.0
 70
     1
 40
0.004
 41
0.004
 75
     8
  0
VERTEX
  5
314
100
AcDbEntity
  8
MECHANICAL1
100
AcDbVertex
100
AcDb2dVertex
 10
6.049
 20
4.011
 30
0.0
 42
1.0
  0
VERTEX
  5
315
100
AcDbEntity
  8
MECHANICAL1
100
AcDbVertex
100
AcDb2dVertex
 10
6.053
 20
4.011
 30
0.0
 42
1.0
  0
SEQEND
  5
316
100
AcDbEntity
  8
0
  0
POLYLINE
  5
317
100
AcDbEntity
  8
MECHANICAL1
100
AcDb2dPolyline
 66
     1
 10
0.0
 20
0.0
 30
0.0
 40
0.008
 41
0.008
 75
     8
  0
VERTEX
  5
318
100
AcDbEntity
  8
MECHANICAL1
100
AcDbVertex
100
AcDb2dVertex
 10
6.196
 20
4.066
 30
0.0
  0
VERTEX
  5
319
100
AcDbEntity
  8
MECHANICAL1
100
AcDbVertex
100
AcDb2dVertex
 10
6.829
 20
4.066
 30
0.0
  0
SEQEND
  5
31A
100
AcDbEntity
  8
0
  0
POLYLINE
  5
31B
100
AcDbEntity
  8
MECHANICAL1
100
AcDb2dPolyline
 66
     1
 10
0.0
 20
0.0
 30
0.0
 70
     1
 40
0.004
 41
0.004
 75
     8
  0
VERTEX
  5
31C
100
AcDbEntity
  8
MECHANICAL1
100
AcDbVertex
100
AcDb2dVertex
 10
6.194
 20
4.066
 30
0.0
 42
1.0
  0
VERTEX
  5
31D
100
AcDbEntity
  8
MECHANICAL1
100
AcDbVertex
100
AcDb2dVertex
 10
6.198
 20
4.066
 30
0.0
 42
1.0
  0
SEQEND
  5
31E
100
AcDbEntity
  8
0
  0
POLYLINE
  5
31F
100
AcDbEntity
  8
MECHANICAL1
100
AcDb2dPolyline
 66
     1
 10
0.0
 20
0.0
 30
0.0
 70
     1
 40
0.004
 41
0.004
 75
     8
  0
VERTEX
  5
320
100
AcDbEntity
  8
MECHANICAL1
100
AcDbVertex
100
AcDb2dVertex
 10
6.827
 20
4.066
 30
0.0
 42
1.0
  0
VERTEX
  5
321
100
AcDbEntity
  8
MECHANICAL1
100
AcDbVertex
100
AcDb2dVertex
 10
6.831
 20
4.066
 30
0.0
 42
1.0
  0
SEQEND
  5
322
100
AcDbEntity
  8
0
  0
POLYLINE
  5
323
100
AcDbEntity
  8
MECHANICAL1
100
AcDb2dPolyline
 66
     1
 10
0.0
 20
0.0
 30
0.0
 40
0.008
 41
0.008
 75
     8
  0
VERTEX
  5
324
100
AcDbEntity
  8
MECHANICAL1
100
AcDbVertex
100
AcDb2dVertex
 10
6.846
 20
4.066
 30
0.0
  0
VERTEX
  5
325
100
AcDbEntity
  8
MECHANICAL1
100
AcDbVertex
100
AcDb2dVertex
 10
6.902
 20
4.066
 30
0.0
  0
SEQEND
  5
326
100
AcDbEntity
  8
0
  0
POLYLINE
  5
327
100
AcDbEntity
  8
MECHANICAL1
100
AcDb2dPolyline
 66
     1
 10
0.0
 20
0.0
 30
0.0
 70
     1
 40
0.004
 41
0.004
 75
     8
  0
VERTEX
  5
328
100
AcDbEntity
  8
MECHANICAL1
100
AcDbVertex
100
AcDb2dVertex
 10
6.844
 20
4.066
 30
0.0
 42
1.0
  0
VERTEX
  5
329
100
AcDbEntity
  8
MECHANICAL1
100
AcDbVertex
100
AcDb2dVertex
 10
6.848
 20
4.066
 30
0.0
 42
1.0
  0
SEQEND
  5
32A
100
AcDbEntity
  8
0
  0
POLYLINE
  5
32B
100
AcDbEntity
  8
MECHANICAL1
100
AcDb2dPolyline
 66
     1
 10
0.0
 20
0.0
 30
0.0
 70
     1
 40
0.004
 41
0.004
 75
     8
  0
VERTEX
  5
32C
100
AcDbEntity
  8
MECHANICAL1
100
AcDbVertex
100
AcDb2dVertex
 10
6.9
 20
4.066
 30
0.0
 42
1.0
  0
VERTEX
  5
32D
100
AcDbEntity
  8
MECHANICAL1
100
AcDbVertex
100
AcDb2dVertex
 10
6.904
 20
4.066
 30
0.0
 42
1.0
  0
SEQEND
  5
32E
100
AcDbEntity
  8
0
  0
POLYLINE
  5
32F
100
AcDbEntity
  8
MECHANICAL1
100
AcDb2dPolyline
 66
     1
 10
0.0
 20
0.0
 30
0.0
 40
0.008
 41
0.008
 75
     8
  0
VERTEX
  5
330
100
AcDbEntity
  8
MECHANICAL1
100
AcDbVertex
100
AcDb2dVertex
 10
6.924
 20
4.066
 30
0.0
  0
VERTEX
  5
331
100
AcDbEntity
  8
MECHANICAL1
100
AcDbVertex
100
AcDb2dVertex
 10
6.999
 20
4.066
 30
0.0
  0
SEQEND
  5
332
100
AcDbEntity
  8
0
  0
POLYLINE
  5
333
100
AcDbEntity
  8
MECHANICAL1
100
AcDb2dPolyline
 66
     1
 10
0.0
 20
0.0
 30
0.0
 70
     1
 40
0.004
 41
0.004
 75
     8
  0
VERTEX
  5
334
100
AcDbEntity
  8
MECHANICAL1
100
AcDbVertex
100
AcDb2dVertex
 10
6.922
 20
4.066
 30
0.0
 42
1.0
  0
VERTEX
  5
335
100
AcDbEntity
  8
MECHANICAL1
100
AcDbVertex
100
AcDb2dVertex
 10
6.926
 20
4.066
 30
0.0
 42
1.0
  0
SEQEND
  5
336
100
AcDbEntity
  8
0
  0
POLYLINE
  5
337
100
AcDbEntity
  8
MECHANICAL1
100
AcDb2dPolyline
 66
     1
 10
0.0
 20
0.0
 30
0.0
 70
     1
 40
0.004
 41
0.004
 75
     8
  0
VERTEX
  5
338
100
AcDbEntity
  8
MECHANICAL1
100
AcDbVertex
100
AcDb2dVertex
 10
6.997
 20
4.066
 30
0.0
 42
1.0
  0
VERTEX
  5
339
100
AcDbEntity
  8
MECHANICAL1
100
AcDbVertex
100
AcDb2dVertex
 10
7.001
 20
4.066
 30
0.0
 42
1.0
  0
SEQEND
  5
33A
100
AcDbEntity
  8
0
  0
POLYLINE
  5
33B
100
AcDbEntity
  8
MECHANICAL1
100
AcDb2dPolyline
 66
     1
 10
0.0
 20
0.0
 30
0.0
 40
0.008
 41
0.008
 75
     8
  0
VERTEX
  5
33C
100
AcDbEntity
  8
MECHANICAL1
100
AcDbVertex
100
AcDb2dVertex
 10
4.682281
 20
8.414719
 30
0.0
  0
VERTEX
  5
33D
100
AcDbEntity
  8
MECHANICAL1
100
AcDbVertex
100
AcDb2dVertex
 10
4.704281
 20
8.414719
 30
0.0
  0
SEQEND
  5
33E
100
AcDbEntity
  8
0
  0
POLYLINE
  5
33F
100
AcDbEntity
  8
MECHANICAL1
100
AcDb2dPolyline
 66
     1
 10
0.0
 20
0.0
 30
0.0
 70
     1
 40
0.004
 41
0.004
 75
     8
  0
VERTEX
  5
340
100
AcDbEntity
  8
MECHANICAL1
100
AcDbVertex
100
AcDb2dVertex
 10
4.680281
 20
8.414719
 30
0.0
 42
1.0
  0
VERTEX
  5
341
100
AcDbEntity
  8
MECHANICAL1
100
AcDbVertex
100
AcDb2dVertex
 10
4.684281
 20
8.414719
 30
0.0
 42
1.0
  0
SEQEND
  5
342
100
AcDbEntity
  8
0
  0
POLYLINE
  5
343
100
AcDbEntity
  8
MECHANICAL1
100
AcDb2dPolyline
 66
     1
 10
0.0
 20
0.0
 30
0.0
 70
     1
 40
0.004
 41
0.004
 75
     8
  0
VERTEX
  5
344
100
AcDbEntity
  8
MECHANICAL1
100
AcDbVertex
100
AcDb2dVertex
 10
4.702281
 20
8.414719
 30
0.0
 42
1.0
  0
VERTEX
  5
345
100
AcDbEntity
  8
MECHANICAL1
100
AcDbVertex
100
AcDb2dVertex
 10
4.706281
 20
8.414719
 30
0.0
 42
1.0
  0
SEQEND
  5
346
100
AcDbEntity
  8
0
  0
POLYLINE
  5
347
100
AcDbEntity
  8
MECHANICAL1
100
AcDb2dPolyline
 66
     1
 10
0.0
 20
0.0
 30
0.0
 40
0.008
 41
0.008
 75
     8
  0
VERTEX
  5
348
100
AcDbEntity
  8
MECHANICAL1
100
AcDbVertex
100
AcDb2dVertex
 10
4.682281
 20
8.392719
 30
0.0
  0
VERTEX
  5
349
100
AcDbEntity
  8
MECHANICAL1
100
AcDbVertex
100
AcDb2dVertex
 10
4.682281
 20
8.414719
 30
0.0
  0
SEQEND
  5
34A
100
AcDbEntity
  8
0
  0
POLYLINE
  5
34B
100
AcDbEntity
  8
MECHANICAL1
100
AcDb2dPolyline
 66
     1
 10
0.0
 20
0.0
 30
0.0
 70
     1
 40
0.004
 41
0.004
 75
     8
  0
VERTEX
  5
34C
100
AcDbEntity
  8
MECHANICAL1
100
AcDbVertex
100
AcDb2dVertex
 10
4.680281
 20
8.392719
 30
0.0
 42
1.0
  0
VERTEX
  5
34D
100
AcDbEntity
  8
MECHANICAL1
100
AcDbVertex
100
AcDb2dVertex
 10
4.684281
 20
8.392719
 30
0.0
 42
1.0
  0
SEQEND
  5
34E
100
AcDbEntity
  8
0
  0
POLYLINE
  5
34F
100
AcDbEntity
  8
MECHANICAL1
100
AcDb2dPolyline
 66
     1
 10
0.0
 20
0.0
 30
0.0
 70
     1
 40
0.004
 41
0.004
 75
     8
  0
VERTEX
  5
350
100
AcDbEntity
  8
MECHANICAL1
100
AcDbVertex
100
AcDb2dVertex
 10
4.680281
 20
8.414719
 30
0.0
 42
1.0
  0
VERTEX
  5
351
100
AcDbEntity
  8
MECHANICAL1
100
AcDbVertex
100
AcDb2dVertex
 10
4.684281
 20
8.414719
 30
0.0
 42
1.0
  0
SEQEND
  5
352
100
AcDbEntity
  8
0
  0
POLYLINE
  5
353
100
AcDbEntity
  8
MECHANICAL1
100
AcDb2dPolyline
 66
     1
 10
0.0
 20
0.0
 30
0.0
 40
0.008
 41
0.008
 75
     8
  0
VERTEX
  5
354
100
AcDbEntity
  8
MECHANICAL1
100
AcDbVertex
100
AcDb2dVertex
 10
4.454
 20
8.564
 30
0.0
  0
VERTEX
  5
355
100
AcDbEntity
  8
MECHANICAL1
100
AcDbVertex
100
AcDb2dVertex
 10
4.533
 20
8.564
 30
0.0
  0
SEQEND
  5
356
100
AcDbEntity
  8
0
  0
POLYLINE
  5
357
100
AcDbEntity
  8
MECHANICAL1
100
AcDb2dPolyline
 66
     1
 10
0.0
 20
0.0
 30
0.0
 70
     1
 40
0.004
 41
0.004
 75
     8
  0
VERTEX
  5
358
100
AcDbEntity
  8
MECHANICAL1
100
AcDbVertex
100
AcDb2dVertex
 10
4.452
 20
8.564
 30
0.0
 42
1.0
  0
VERTEX
  5
359
100
AcDbEntity
  8
MECHANICAL1
100
AcDbVertex
100
AcDb2dVertex
 10
4.456
 20
8.564
 30
0.0
 42
1.0
  0
SEQEND
  5
35A
100
AcDbEntity
  8
0
  0
POLYLINE
  5
35B
100
AcDbEntity
  8
MECHANICAL1
100
AcDb2dPolyline
 66
     1
 10
0.0
 20
0.0
 30
0.0
 70
     1
 40
0.004
 41
0.004
 75
     8
  0
VERTEX
  5
35C
100
AcDbEntity
  8
MECHANICAL1
100
AcDbVertex
100
AcDb2dVertex
 10
4.531
 20
8.564
 30
0.0
 42
1.0
  0
VERTEX
  5
35D
100
AcDbEntity
  8
MECHANICAL1
100
AcDbVertex
100
AcDb2dVertex
 10
4.535
 20
8.564
 30
0.0
 42
1.0
  0
SEQEND
  5
35E
100
AcDbEntity
  8
0
  0
POLYLINE
  5
35F
100
AcDbEntity
  8
MECHANICAL1
100
AcDb2dPolyline
 66
     1
 10
0.0
 20
0.0
 30
0.0
 40
0.008
 41
0.008
 75
     8
  0
VERTEX
  5
360
100
AcDbEntity
  8
MECHANICAL1
100
AcDbVertex
100
AcDb2dVertex
 10
4.533
 20
8.564
 30
0.0
  0
VERTEX
  5
361
100
AcDbEntity
  8
MECHANICAL1
100
AcDbVertex
100
AcDb2dVertex
 10
4.831
 20
8.266
 30
0.0
  0
SEQEND
  5
362
100
AcDbEntity
  8
0
  0
POLYLINE
  5
363
100
AcDbEntity
  8
MECHANICAL1
100
AcDb2dPolyline
 66
     1
 10
0.0
 20
0.0
 30
0.0
 70
     1
 40
0.004
 41
0.004
 75
     8
  0
VERTEX
  5
364
100
AcDbEntity
  8
MECHANICAL1
100
AcDbVertex
100
AcDb2dVertex
 10
4.531
 20
8.564
 30
0.0
 42
1.0
  0
VERTEX
  5
365
100
AcDbEntity
  8
MECHANICAL1
100
AcDbVertex
100
AcDb2dVertex
 10
4.535
 20
8.564
 30
0.0
 42
1.0
  0
SEQEND
  5
366
100
AcDbEntity
  8
0
  0
POLYLINE
  5
367
100
AcDbEntity
  8
MECHANICAL1
100
AcDb2dPolyline
 66
     1
 10
0.0
 20
0.0
 30
0.0
 70
     1
 40
0.004
 41
0.004
 75
     8
  0
VERTEX
  5
368
100
AcDbEntity
  8
MECHANICAL1
100
AcDbVertex
100
AcDb2dVertex
 10
4.829
 20
8.266
 30
0.0
 42
1.0
  0
VERTEX
  5
369
100
AcDbEntity
  8
MECHANICAL1
100
AcDbVertex
100
AcDb2dVertex
 10
4.833
 20
8.266
 30
0.0
 42
1.0
  0
SEQEND
  5
36A
100
AcDbEntity
  8
0
  0
POLYLINE
  5
36B
100
AcDbEntity
  8
MECHANICAL1
100
AcDb2dPolyline
 66
     1
 10
0.0
 20
0.0
 30
0.0
 40
0.008
 41
0.008
 75
     8
  0
VERTEX
  5
36C
100
AcDbEntity
  8
MECHANICAL1
100
AcDbVertex
100
AcDb2dVertex
 10
4.761
 20
5.178
 30
0.0
  0
VERTEX
  5
36D
100
AcDbEntity
  8
MECHANICAL1
100
AcDbVertex
100
AcDb2dVertex
 10
4.781
 20
5.168
 30
0.0
  0
SEQEND
  5
36E
100
AcDbEntity
  8
0
  0
POLYLINE
  5
36F
100
AcDbEntity
  8
MECHANICAL1
100
AcDb2dPolyline
 66
     1
 10
0.0
 20
0.0
 30
0.0
 70
     1
 40
0.004
 41
0.004
 75
     8
  0
VERTEX
  5
370
100
AcDbEntity
  8
MECHANICAL1
100
AcDbVertex
100
AcDb2dVertex
 10
4.759
 20
5.178
 30
0.0
 42
1.0
  0
VERTEX
  5
371
100
AcDbEntity
  8
MECHANICAL1
100
AcDbVertex
100
AcDb2dVertex
 10
4.763
 20
5.178
 30
0.0
 42
1.0
  0
SEQEND
  5
372
100
AcDbEntity
  8
0
  0
POLYLINE
  5
373
100
AcDbEntity
  8
MECHANICAL1
100
AcDb2dPolyline
 66
     1
 10
0.0
 20
0.0
 30
0.0
 70
     1
 40
0.004
 41
0.004
 75
     8
  0
VERTEX
  5
374
100
AcDbEntity
  8
MECHANICAL1
100
AcDbVertex
100
AcDb2dVertex
 10
4.779
 20
5.168
 30
0.0
 42
1.0
  0
VERTEX
  5
375
100
AcDbEntity
  8
MECHANICAL1
100
AcDbVertex
100
AcDb2dVertex
 10
4.783
 20
5.168
 30
0.0
 42
1.0
  0
SEQEND
  5
376
100
AcDbEntity
  8
0
  0
POLYLINE
  5
377
100
AcDbEntity
  8
MECHANICAL1
100
AcDb2dPolyline
 66
     1
 10
0.0
 20
0.0
 30
0.0
 40
0.008
 41
0.008
 75
     8
  0
VERTEX
  5
378
100
AcDbEntity
  8
MECHANICAL1
100
AcDbVertex
100
AcDb2dVertex
 10
4.761
 20
5.158
 30
0.0
  0
VERTEX
  5
379
100
AcDbEntity
  8
MECHANICAL1
100
AcDbVertex
100
AcDb2dVertex
 10
4.781
 20
5.168
 30
0.0
  0
SEQEND
  5
37A
100
AcDbEntity
  8
0
  0
POLYLINE
  5
37B
100
AcDbEntity
  8
MECHANICAL1
100
AcDb2dPolyline
 66
     1
 10
0.0
 20
0.0
 30
0.0
 70
     1
 40
0.004
 41
0.004
 75
     8
  0
VERTEX
  5
37C
100
AcDbEntity
  8
MECHANICAL1
100
AcDbVertex
100
AcDb2dVertex
 10
4.759
 20
5.158
 30
0.0
 42
1.0
  0
VERTEX
  5
37D
100
AcDbEntity
  8
MECHANICAL1
100
AcDbVertex
100
AcDb2dVertex
 10
4.763
 20
5.158
 30
0.0
 42
1.0
  0
SEQEND
  5
37E
100
AcDbEntity
  8
0
  0
POLYLINE
  5
37F
100
AcDbEntity
  8
MECHANICAL1
100
AcDb2dPolyline
 66
     1
 10
0.0
 20
0.0
 30
0.0
 70
     1
 40
0.004
 41
0.004
 75
     8
  0
VERTEX
  5
380
100
AcDbEntity
  8
MECHANICAL1
100
AcDbVertex
100
AcDb2dVertex
 10
4.779
 20
5.168
 30
0.0
 42
1.0
  0
VERTEX
  5
381
100
AcDbEntity
  8
MECHANICAL1
100
AcDbVertex
100
AcDb2dVertex
 10
4.783
 20
5.168
 30
0.0
 42
1.0
  0
SEQEND
  5
382
100
AcDbEntity
  8
0
  0
POLYLINE
  5
383
100
AcDbEntity
  8
MECHANICAL1
100
AcDb2dPolyline
 66
     1
 10
0.0
 20
0.0
 30
0.0
 40
0.008
 41
0.008
 75
     8
  0
VERTEX
  5
384
100
AcDbEntity
  8
MECHANICAL1
100
AcDbVertex
100
AcDb2dVertex
 10
4.851
 20
5.168
 30
0.0
  0
VERTEX
  5
385
100
AcDbEntity
  8
MECHANICAL1
100
AcDbVertex
100
AcDb2dVertex
 10
4.871
 20
5.178
 30
0.0
  0
SEQEND
  5
386
100
AcDbEntity
  8
0
  0
POLYLINE
  5
387
100
AcDbEntity
  8
MECHANICAL1
100
AcDb2dPolyline
 66
     1
 10
0.0
 20
0.0
 30
0.0
 70
     1
 40
0.004
 41
0.004
 75
     8
  0
VERTEX
  5
388
100
AcDbEntity
  8
MECHANICAL1
100
AcDbVertex
100
AcDb2dVertex
 10
4.849
 20
5.168
 30
0.0
 42
1.0
  0
VERTEX
  5
389
100
AcDbEntity
  8
MECHANICAL1
100
AcDbVertex
100
AcDb2dVertex
 10
4.853
 20
5.168
 30
0.0
 42
1.0
  0
SEQEND
  5
38A
100
AcDbEntity
  8
0
  0
POLYLINE
  5
38B
100
AcDbEntity
  8
MECHANICAL1
100
AcDb2dPolyline
 66
     1
 10
0.0
 20
0.0
 30
0.0
 70
     1
 40
0.004
 41
0.004
 75
     8
  0
VERTEX
  5
38C
100
AcDbEntity
  8
MECHANICAL1
100
AcDbVertex
100
AcDb2dVertex
 10
4.869
 20
5.178
 30
0.0
 42
1.0
  0
VERTEX
  5
38D
100
AcDbEntity
  8
MECHANICAL1
100
AcDbVertex
100
AcDb2dVertex
 10
4.873
 20
5.178
 30
0.0
 42
1.0
  0
SEQEND
  5
38E
100
AcDbEntity
  8
0
  0
POLYLINE
  5
38F
100
AcDbEntity
  8
MECHANICAL1
100
AcDb2dPolyline
 66
     1
 10
0.0
 20
0.0
 30
0.0
 40
0.008
 41
0.008
 75
     8
  0
VERTEX
  5
390
100
AcDbEntity
  8
MECHANICAL1
100
AcDbVertex
100
AcDb2dVertex
 10
4.851
 20
5.168
 30
0.0
  0
VERTEX
  5
391
100
AcDbEntity
  8
MECHANICAL1
100
AcDbVertex
100
AcDb2dVertex
 10
4.871
 20
5.158
 30
0.0
  0
SEQEND
  5
392
100
AcDbEntity
  8
0
  0
POLYLINE
  5
393
100
AcDbEntity
  8
MECHANICAL1
100
AcDb2dPolyline
 66
     1
 10
0.0
 20
0.0
 30
0.0
 70
     1
 40
0.004
 41
0.004
 75
     8
  0
VERTEX
  5
394
100
AcDbEntity
  8
MECHANICAL1
100
AcDbVertex
100
AcDb2dVertex
 10
4.849
 20
5.168
 30
0.0
 42
1.0
  0
VERTEX
  5
395
100
AcDbEntity
  8
MECHANICAL1
100
AcDbVertex
100
AcDb2dVertex
 10
4.853
 20
5.168
 30
0.0
 42
1.0
  0
SEQEND
  5
396
100
AcDbEntity
  8
0
  0
POLYLINE
  5
397
100
AcDbEntity
  8
MECHANICAL1
100
AcDb2dPolyline
 66
     1
 10
0.0
 20
0.0
 30
0.0
 70
     1
 40
0.004
 41
0.004
 75
     8
  0
VERTEX
  5
398
100
AcDbEntity
  8
MECHANICAL1
100
AcDbVertex
100
AcDb2dVertex
 10
4.869
 20
5.158
 30
0.0
 42
1.0
  0
VERTEX
  5
399
100
AcDbEntity
  8
MECHANICAL1
100
AcDbVertex
100
AcDb2dVertex
 10
4.873
 20
5.158
 30
0.0
 42
1.0
  0
SEQEND
  5
39A
100
AcDbEntity
  8
0
  0
POLYLINE
  5
39B
100
AcDbEntity
  8
MECHANICAL1
100
AcDb2dPolyline
 66
     1
 10
0.0
 20
0.0
 30
0.0
 40
0.008
 41
0.008
 75
     8
  0
VERTEX
  5
39C
100
AcDbEntity
  8
MECHANICAL1
100
AcDbVertex
100
AcDb2dVertex
 10
4.851
 20
5.168
 30
0.0
  0
VERTEX
  5
39D
100
AcDbEntity
  8
MECHANICAL1
100
AcDbVertex
100
AcDb2dVertex
 10
4.911
 20
5.168
 30
0.0
  0
SEQEND
  5
39E
100
AcDbEntity
  8
0
  0
POLYLINE
  5
39F
100
AcDbEntity
  8
MECHANICAL1
100
AcDb2dPolyline
 66
     1
 10
0.0
 20
0.0
 30
0.0
 70
     1
 40
0.004
 41
0.004
 75
     8
  0
VERTEX
  5
3A0
100
AcDbEntity
  8
MECHANICAL1
100
AcDbVertex
100
AcDb2dVertex
 10
4.849
 20
5.168
 30
0.0
 42
1.0
  0
VERTEX
  5
3A1
100
AcDbEntity
  8
MECHANICAL1
100
AcDbVertex
100
AcDb2dVertex
 10
4.853
 20
5.168
 30
0.0
 42
1.0
  0
SEQEND
  5
3A2
100
AcDbEntity
  8
0
  0
POLYLINE
  5
3A3
100
AcDbEntity
  8
MECHANICAL1
100
AcDb2dPolyline
 66
     1
 10
0.0
 20
0.0
 30
0.0
 70
     1
 40
0.004
 41
0.004
 75
     8
  0
VERTEX
  5
3A4
100
AcDbEntity
  8
MECHANICAL1
100
AcDbVertex
100
AcDb2dVertex
 10
4.909
 20
5.168
 30
0.0
 42
1.0
  0
VERTEX
  5
3A5
100
AcDbEntity
  8
MECHANICAL1
100
AcDbVertex
100
AcDb2dVertex
 10
4.913
 20
5.168
 30
0.0
 42
1.0
  0
SEQEND
  5
3A6
100
AcDbEntity
  8
0
  0
POLYLINE
  5
3A7
100
AcDbEntity
  8
MECHANICAL1
100
AcDb2dPolyline
 66
     1
 10
0.0
 20
0.0
 30
0.0
 40
0.008
 41
0.008
 75
     8
  0
VERTEX
  5
3A8
100
AcDbEntity
  8
MECHANICAL1
100
AcDbVertex
100
AcDb2dVertex
 10
4.731
 20
5.168
 30
0.0
  0
VERTEX
  5
3A9
100
AcDbEntity
  8
MECHANICAL1
100
AcDbVertex
100
AcDb2dVertex
 10
4.781
 20
5.168
 30
0.0
  0
SEQEND
  5
3AA
100
AcDbEntity
  8
0
  0
POLYLINE
  5
3AB
100
AcDbEntity
  8
MECHANICAL1
100
AcDb2dPolyline
 66
     1
 10
0.0
 20
0.0
 30
0.0
 70
     1
 40
0.004
 41
0.004
 75
     8
  0
VERTEX
  5
3AC
100
AcDbEntity
  8
MECHANICAL1
100
AcDbVertex
100
AcDb2dVertex
 10
4.729
 20
5.168
 30
0.0
 42
1.0
  0
VERTEX
  5
3AD
100
AcDbEntity
  8
MECHANICAL1
100
AcDbVertex
100
AcDb2dVertex
 10
4.733
 20
5.168
 30
0.0
 42
1.0
  0
SEQEND
  5
3AE
100
AcDbEntity
  8
0
  0
POLYLINE
  5
3AF
100
AcDbEntity
  8
MECHANICAL1
100
AcDb2dPolyline
 66
     1
 10
0.0
 20
0.0
 30
0.0
 70
     1
 40
0.004
 41
0.004
 75
     8
  0
VERTEX
  5
3B0
100
AcDbEntity
  8
MECHANICAL1
100
AcDbVertex
100
AcDb2dVertex
 10
4.779
 20
5.168
 30
0.0
 42
1.0
  0
VERTEX
  5
3B1
100
AcDbEntity
  8
MECHANICAL1
100
AcDbVertex
100
AcDb2dVertex
 10
4.783
 20
5.168
 30
0.0
 42
1.0
  0
SEQEND
  5
3B2
100
AcDbEntity
  8
0
  0
POLYLINE
  5
3B3
100
AcDbEntity
  8
MECHANICAL1
100
AcDb2dPolyline
 66
     1
 10
0.0
 20
0.0
 30
0.0
 40
0.008
 41
0.008
 75
     8
  0
VERTEX
  5
3B4
100
AcDbEntity
  8
MECHANICAL1
100
AcDbVertex
100
AcDb2dVertex
 10
4.781
 20
5.135
 30
0.0
  0
VERTEX
  5
3B5
100
AcDbEntity
  8
MECHANICAL1
100
AcDbVertex
100
AcDb2dVertex
 10
4.781
 20
5.211
 30
0.0
  0
SEQEND
  5
3B6
100
AcDbEntity
  8
0
  0
POLYLINE
  5
3B7
100
AcDbEntity
  8
MECHANICAL1
100
AcDb2dPolyline
 66
     1
 10
0.0
 20
0.0
 30
0.0
 70
     1
 40
0.004
 41
0.004
 75
     8
  0
VERTEX
  5
3B8
100
AcDbEntity
  8
MECHANICAL1
100
AcDbVertex
100
AcDb2dVertex
 10
4.779
 20
5.135
 30
0.0
 42
1.0
  0
VERTEX
  5
3B9
100
AcDbEntity
  8
MECHANICAL1
100
AcDbVertex
100
AcDb2dVertex
 10
4.783
 20
5.135
 30
0.0
 42
1.0
  0
SEQEND
  5
3BA
100
AcDbEntity
  8
0
  0
POLYLINE
  5
3BB
100
AcDbEntity
  8
MECHANICAL1
100
AcDb2dPolyline
 66
     1
 10
0.0
 20
0.0
 30
0.0
 70
     1
 40
0.004
 41
0.004
 75
     8
  0
VERTEX
  5
3BC
100
AcDbEntity
  8
MECHANICAL1
100
AcDbVertex
100
AcDb2dVertex
 10
4.779
 20
5.211
 30
0.0
 42
1.0
  0
VERTEX
  5
3BD
100
AcDbEntity
  8
MECHANICAL1
100
AcDbVertex
100
AcDb2dVertex
 10
4.783
 20
5.211
 30
0.0
 42
1.0
  0
SEQEND
  5
3BE
100
AcDbEntity
  8
0
  0
POLYLINE
  5
3BF
100
AcDbEntity
  8
MECHANICAL1
100
AcDb2dPolyline
 66
     1
 10
0.0
 20
0.0
 30
0.0
 40
0.008
 41
0.008
 75
     8
  0
VERTEX
  5
3C0
100
AcDbEntity
  8
MECHANICAL1
100
AcDbVertex
100
AcDb2dVertex
 10
4.781
 20
5.211
 30
0.0
  0
VERTEX
  5
3C1
100
AcDbEntity
  8
MECHANICAL1
100
AcDbVertex
100
AcDb2dVertex
 10
4.81
 20
5.29
 30
0.0
  0
SEQEND
  5
3C2
100
AcDbEntity
  8
0
  0
POLYLINE
  5
3C3
100
AcDbEntity
  8
MECHANICAL1
100
AcDb2dPolyline
 66
     1
 10
0.0
 20
0.0
 30
0.0
 70
     1
 40
0.004
 41
0.004
 75
     8
  0
VERTEX
  5
3C4
100
AcDbEntity
  8
MECHANICAL1
100
AcDbVertex
100
AcDb2dVertex
 10
4.779
 20
5.211
 30
0.0
 42
1.0
  0
VERTEX
  5
3C5
100
AcDbEntity
  8
MECHANICAL1
100
AcDbVertex
100
AcDb2dVertex
 10
4.783
 20
5.211
 30
0.0
 42
1.0
  0
SEQEND
  5
3C6
100
AcDbEntity
  8
0
  0
POLYLINE
  5
3C7
100
AcDbEntity
  8
MECHANICAL1
100
AcDb2dPolyline
 66
     1
 10
0.0
 20
0.0
 30
0.0
 70
     1
 40
0.004
 41
0.004
 75
     8
  0
VERTEX
  5
3C8
100
AcDbEntity
  8
MECHANICAL1
100
AcDbVertex
100
AcDb2dVertex
 10
4.808
 20
5.29
 30
0.0
 42
1.0
  0
VERTEX
  5
3C9
100
AcDbEntity
  8
MECHANICAL1
100
AcDbVertex
100
AcDb2dVertex
 10
4.812
 20
5.29
 30
0.0
 42
1.0
  0
SEQEND
  5
3CA
100
AcDbEntity
  8
0
  0
POLYLINE
  5
3CB
100
AcDbEntity
  8
MECHANICAL1
100
AcDb2dPolyline
 66
     1
 10
0.0
 20
0.0
 30
0.0
 40
0.008
 41
0.008
 75
     8
  0
VERTEX
  5
3CC
100
AcDbEntity
  8
MECHANICAL1
100
AcDbVertex
100
AcDb2dVertex
 10
4.811
 20
5.291
 30
0.0
  0
VERTEX
  5
3CD
100
AcDbEntity
  8
MECHANICAL1
100
AcDbVertex
100
AcDb2dVertex
 10
4.811
 20
5.685
 30
0.0
  0
SEQEND
  5
3CE
100
AcDbEntity
  8
0
  0
POLYLINE
  5
3CF
100
AcDbEntity
  8
MECHANICAL1
100
AcDb2dPolyline
 66
     1
 10
0.0
 20
0.0
 30
0.0
 70
     1
 40
0.004
 41
0.004
 75
     8
  0
VERTEX
  5
3D0
100
AcDbEntity
  8
MECHANICAL1
100
AcDbVertex
100
AcDb2dVertex
 10
4.809
 20
5.291
 30
0.0
 42
1.0
  0
VERTEX
  5
3D1
100
AcDbEntity
  8
MECHANICAL1
100
AcDbVertex
100
AcDb2dVertex
 10
4.813
 20
5.291
 30
0.0
 42
1.0
  0
SEQEND
  5
3D2
100
AcDbEntity
  8
0
  0
POLYLINE
  5
3D3
100
AcDbEntity
  8
MECHANICAL1
100
AcDb2dPolyline
 66
     1
 10
0.0
 20
0.0
 30
0.0
 70
     1
 40
0.004
 41
0.004
 75
     8
  0
VERTEX
  5
3D4
100
AcDbEntity
  8
MECHANICAL1
100
AcDbVertex
100
AcDb2dVertex
 10
4.809
 20
5.685
 30
0.0
 42
1.0
  0
VERTEX
  5
3D5
100
AcDbEntity
  8
MECHANICAL1
100
AcDbVertex
100
AcDb2dVertex
 10
4.813
 20
5.685
 30
0.0
 42
1.0
  0
SEQEND
  5
3D6
100
AcDbEntity
  8
0
  0
POLYLINE
  5
3D7
100
AcDbEntity
  8
MECHANICAL1
100
AcDb2dPolyline
 66
     1
 10
0.0
 20
0.0
 30
0.0
 40
0.008
 41
0.008
 75
     8
  0
VERTEX
  5
3D8
100
AcDbEntity
  8
MECHANICAL1
100
AcDbVertex
100
AcDb2dVertex
 10
4.811
 20
5.702
 30
0.0
  0
VERTEX
  5
3D9
100
AcDbEntity
  8
MECHANICAL1
100
AcDbVertex
100
AcDb2dVertex
 10
4.811
 20
5.758
 30
0.0
  0
SEQEND
  5
3DA
100
AcDbEntity
  8
0
  0
POLYLINE
  5
3DB
100
AcDbEntity
  8
MECHANICAL1
100
AcDb2dPolyline
 66
     1
 10
0.0
 20
0.0
 30
0.0
 70
     1
 40
0.004
 41
0.004
 75
     8
  0
VERTEX
  5
3DC
100
AcDbEntity
  8
MECHANICAL1
100
AcDbVertex
100
AcDb2dVertex
 10
4.809
 20
5.702
 30
0.0
 42
1.0
  0
VERTEX
  5
3DD
100
AcDbEntity
  8
MECHANICAL1
100
AcDbVertex
100
AcDb2dVertex
 10
4.813
 20
5.702
 30
0.0
 42
1.0
  0
SEQEND
  5
3DE
100
AcDbEntity
  8
0
  0
POLYLINE
  5
3DF
100
AcDbEntity
  8
MECHANICAL1
100
AcDb2dPolyline
 66
     1
 10
0.0
 20
0.0
 30
0.0
 70
     1
 40
0.004
 41
0.004
 75
     8
  0
VERTEX
  5
3E0
100
AcDbEntity
  8
MECHANICAL1
100
AcDbVertex
100
AcDb2dVertex
 10
4.809
 20
5.758
 30
0.0
 42
1.0
  0
VERTEX
  5
3E1
100
AcDbEntity
  8
MECHANICAL1
100
AcDbVertex
100
AcDb2dVertex
 10
4.813
 20
5.758
 30
0.0
 42
1.0
  0
SEQEND
  5
3E2
100
AcDbEntity
  8
0
  0
POLYLINE
  5
3E3
100
AcDbEntity
  8
MECHANICAL1
100
AcDb2dPolyline
 66
     1
 10
0.0
 20
0.0
 30
0.0
 40
0.008
 41
0.008
 75
     8
  0
VERTEX
  5
3E4
100
AcDbEntity
  8
MECHANICAL1
100
AcDbVertex
100
AcDb2dVertex
 10
4.811
 20
5.78
 30
0.0
  0
VERTEX
  5
3E5
100
AcDbEntity
  8
MECHANICAL1
100
AcDbVertex
100
AcDb2dVertex
 10
4.811
 20
5.855
 30
0.0
  0
SEQEND
  5
3E6
100
AcDbEntity
  8
0
  0
POLYLINE
  5
3E7
100
AcDbEntity
  8
MECHANICAL1
100
AcDb2dPolyline
 66
     1
 10
0.0
 20
0.0
 30
0.0
 70
     1
 40
0.004
 41
0.004
 75
     8
  0
VERTEX
  5
3E8
100
AcDbEntity
  8
MECHANICAL1
100
AcDbVertex
100
AcDb2dVertex
 10
4.809
 20
5.78
 30
0.0
 42
1.0
  0
VERTEX
  5
3E9
100
AcDbEntity
  8
MECHANICAL1
100
AcDbVertex
100
AcDb2dVertex
 10
4.813
 20
5.78
 30
0.0
 42
1.0
  0
SEQEND
  5
3EA
100
AcDbEntity
  8
0
  0
POLYLINE
  5
3EB
100
AcDbEntity
  8
MECHANICAL1
100
AcDb2dPolyline
 66
     1
 10
0.0
 20
0.0
 30
0.0
 70
     1
 40
0.004
 41
0.004
 75
     8
  0
VERTEX
  5
3EC
100
AcDbEntity
  8
MECHANICAL1
100
AcDbVertex
100
AcDb2dVertex
 10
4.809
 20
5.855
 30
0.0
 42
1.0
  0
VERTEX
  5
3ED
100
AcDbEntity
  8
MECHANICAL1
100
AcDbVertex
100
AcDb2dVertex
 10
4.813
 20
5.855
 30
0.0
 42
1.0
  0
SEQEND
  5
3EE
100
AcDbEntity
  8
0
  0
POLYLINE
  5
3EF
100
AcDbEntity
  8
MECHANICAL1
100
AcDb2dPolyline
 66
     1
 10
0.0
 20
0.0
 30
0.0
 40
0.008
 41
0.008
 75
     8
  0
VERTEX
  5
3F0
100
AcDbEntity
  8
MECHANICAL1
100
AcDbVertex
100
AcDb2dVertex
 10
4.851
 20
3.198
 30
0.0
  0
VERTEX
  5
3F1
100
AcDbEntity
  8
MECHANICAL1
100
AcDbVertex
100
AcDb2dVertex
 10
4.851
 20
5.31
 30
0.0
  0
SEQEND
  5
3F2
100
AcDbEntity
  8
0
  0
POLYLINE
  5
3F3
100
AcDbEntity
  8
MECHANICAL1
100
AcDb2dPolyline
 66
     1
 10
0.0
 20
0.0
 30
0.0
 70
     1
 40
0.004
 41
0.004
 75
     8
  0
VERTEX
  5
3F4
100
AcDbEntity
  8
MECHANICAL1
100
AcDbVertex
100
AcDb2dVertex
 10
4.849
 20
3.198
 30
0.0
 42
1.0
  0
VERTEX
  5
3F5
100
AcDbEntity
  8
MECHANICAL1
100
AcDbVertex
100
AcDb2dVertex
 10
4.853
 20
3.198
 30
0.0
 42
1.0
  0
SEQEND
  5
3F6
100
AcDbEntity
  8
0
  0
POLYLINE
  5
3F7
100
AcDbEntity
  8
MECHANICAL1
100
AcDb2dPolyline
 66
     1
 10
0.0
 20
0.0
 30
0.0
 70
     1
 40
0.004
 41
0.004
 75
     8
  0
VERTEX
  5
3F8
100
AcDbEntity
  8
MECHANICAL1
100
AcDbVertex
100
AcDb2dVertex
 10
4.849
 20
5.31
 30
0.0
 42
1.0
  0
VERTEX
  5
3F9
100
AcDbEntity
  8
MECHANICAL1
100
AcDbVertex
100
AcDb2dVertex
 10
4.853
 20
5.31
 30
0.0
 42
1.0
  0
SEQEND
  5
3FA
100
AcDbEntity
  8
0
  0
POLYLINE
  5
3FB
100
AcDbEntity
  8
MECHANICAL1
100
AcDb2dPolyline
 66
     1
 10
0.0
 20
0.0
 30
0.0
 40
0.008
 41
0.008
 75
     8
  0
VERTEX
  5
3FC
100
AcDbEntity
  8
MECHANICAL1
100
AcDbVertex
100
AcDb2dVertex
 10
8.26
 20
7.0
 30
0.0
  0
VERTEX
  5
3FD
100
AcDbEntity
  8
MECHANICAL1
100
AcDbVertex
100
AcDb2dVertex
 10
8.27
 20
7.02
 30
0.0
  0
SEQEND
  5
3FE
100
AcDbEntity
  8
0
  0
POLYLINE
  5
3FF
100
AcDbEntity
  8
MECHANICAL1
100
AcDb2dPolyline
 66
     1
 10
0.0
 20
0.0
 30
0.0
 70
     1
 40
0.004
 41
0.004
 75
     8
  0
VERTEX
  5
400
100
AcDbEntity
  8
MECHANICAL1
100
AcDbVertex
100
AcDb2dVertex
 10
8.258
 20
7.0
 30
0.0
 42
1.0
  0
VERTEX
  5
401
100
AcDbEntity
  8
MECHANICAL1
100
AcDbVertex
100
AcDb2dVertex
 10
8.262
 20
7.0
 30
0.0
 42
1.0
  0
SEQEND
  5
402
100
AcDbEntity
  8
0
  0
POLYLINE
  5
403
100
AcDbEntity
  8
MECHANICAL1
100
AcDb2dPolyline
 66
     1
 10
0.0
 20
0.0
 30
0.0
 70
     1
 40
0.004
 41
0.004
 75
     8
  0
VERTEX
  5
404
100
AcDbEntity
  8
MECHANICAL1
100
AcDbVertex
100
AcDb2dVertex
 10
8.268
 20
7.02
 30
0.0
 42
1.0
  0
VERTEX
  5
405
100
AcDbEntity
  8
MECHANICAL1
100
AcDbVertex
100
AcDb2dVertex
 10
8.272
 20
7.02
 30
0.0
 42
1.0
  0
SEQEND
  5
406
100
AcDbEntity
  8
0
  0
POLYLINE
  5
407
100
AcDbEntity
  8
MECHANICAL1
100
AcDb2dPolyline
 66
     1
 10
0.0
 20
0.0
 30
0.0
 40
0.008
 41
0.008
 75
     8
  0
VERTEX
  5
408
100
AcDbEntity
  8
MECHANICAL1
100
AcDbVertex
100
AcDb2dVertex
 10
8.25
 20
7.02
 30
0.0
  0
VERTEX
  5
409
100
AcDbEntity
  8
MECHANICAL1
100
AcDbVertex
100
AcDb2dVertex
 10
8.26
 20
7.0
 30
0.0
  0
SEQEND
  5
40A
100
AcDbEntity
  8
0
  0
POLYLINE
  5
40B
100
AcDbEntity
  8
MECHANICAL1
100
AcDb2dPolyline
 66
     1
 10
0.0
 20
0.0
 30
0.0
 70
     1
 40
0.004
 41
0.004
 75
     8
  0
VERTEX
  5
40C
100
AcDbEntity
  8
MECHANICAL1
100
AcDbVertex
100
AcDb2dVertex
 10
8.248
 20
7.02
 30
0.0
 42
1.0
  0
VERTEX
  5
40D
100
AcDbEntity
  8
MECHANICAL1
100
AcDbVertex
100
AcDb2dVertex
 10
8.252
 20
7.02
 30
0.0
 42
1.0
  0
SEQEND
  5
40E
100
AcDbEntity
  8
0
  0
POLYLINE
  5
40F
100
AcDbEntity
  8
MECHANICAL1
100
AcDb2dPolyline
 66
     1
 10
0.0
 20
0.0
 30
0.0
 70
     1
 40
0.004
 41
0.004
 75
     8
  0
VERTEX
  5
410
100
AcDbEntity
  8
MECHANICAL1
100
AcDbVertex
100
AcDb2dVertex
 10
8.258
 20
7.0
 30
0.0
 42
1.0
  0
VERTEX
  5
411
100
AcDbEntity
  8
MECHANICAL1
100
AcDbVertex
100
AcDb2dVertex
 10
8.262
 20
7.0
 30
0.0
 42
1.0
  0
SEQEND
  5
412
100
AcDbEntity
  8
0
  0
POLYLINE
  5
413
100
AcDbEntity
  8
MECHANICAL1
100
AcDb2dPolyline
 66
     1
 10
0.0
 20
0.0
 30
0.0
 40
0.008
 41
0.008
 75
     8
  0
VERTEX
  5
414
100
AcDbEntity
  8
MECHANICAL1
100
AcDbVertex
100
AcDb2dVertex
 10
8.26
 20
6.9
 30
0.0
  0
VERTEX
  5
415
100
AcDbEntity
  8
MECHANICAL1
100
AcDbVertex
100
AcDb2dVertex
 10
8.27
 20
6.88
 30
0.0
  0
SEQEND
  5
416
100
AcDbEntity
  8
0
  0
POLYLINE
  5
417
100
AcDbEntity
  8
MECHANICAL1
100
AcDb2dPolyline
 66
     1
 10
0.0
 20
0.0
 30
0.0
 70
     1
 40
0.004
 41
0.004
 75
     8
  0
VERTEX
  5
418
100
AcDbEntity
  8
MECHANICAL1
100
AcDbVertex
100
AcDb2dVertex
 10
8.258
 20
6.9
 30
0.0
 42
1.0
  0
VERTEX
  5
419
100
AcDbEntity
  8
MECHANICAL1
100
AcDbVertex
100
AcDb2dVertex
 10
8.262
 20
6.9
 30
0.0
 42
1.0
  0
SEQEND
  5
41A
100
AcDbEntity
  8
0
  0
POLYLINE
  5
41B
100
AcDbEntity
  8
MECHANICAL1
100
AcDb2dPolyline
 66
     1
 10
0.0
 20
0.0
 30
0.0
 70
     1
 40
0.004
 41
0.004
 75
     8
  0
VERTEX
  5
41C
100
AcDbEntity
  8
MECHANICAL1
100
AcDbVertex
100
AcDb2dVertex
 10
8.268
 20
6.88
 30
0.0
 42
1.0
  0
VERTEX
  5
41D
100
AcDbEntity
  8
MECHANICAL1
100
AcDbVertex
100
AcDb2dVertex
 10
8.272
 20
6.88
 30
0.0
 42
1.0
  0
SEQEND
  5
41E
100
AcDbEntity
  8
0
  0
POLYLINE
  5
41F
100
AcDbEntity
  8
MECHANICAL1
100
AcDb2dPolyline
 66
     1
 10
0.0
 20
0.0
 30
0.0
 40
0.008
 41
0.008
 75
     8
  0
VERTEX
  5
420
100
AcDbEntity
  8
MECHANICAL1
100
AcDbVertex
100
AcDb2dVertex
 10
8.25
 20
6.88
 30
0.0
  0
VERTEX
  5
421
100
AcDbEntity
  8
MECHANICAL1
100
AcDbVertex
100
AcDb2dVertex
 10
8.26
 20
6.9
 30
0.0
  0
SEQEND
  5
422
100
AcDbEntity
  8
0
  0
POLYLINE
  5
423
100
AcDbEntity
  8
MECHANICAL1
100
AcDb2dPolyline
 66
     1
 10
0.0
 20
0.0
 30
0.0
 70
     1
 40
0.004
 41
0.004
 75
     8
  0
VERTEX
  5
424
100
AcDbEntity
  8
MECHANICAL1
100
AcDbVertex
100
AcDb2dVertex
 10
8.248
 20
6.88
 30
0.0
 42
1.0
  0
VERTEX
  5
425
100
AcDbEntity
  8
MECHANICAL1
100
AcDbVertex
100
AcDb2dVertex
 10
8.252
 20
6.88
 30
0.0
 42
1.0
  0
SEQEND
  5
426
100
AcDbEntity
  8
0
  0
POLYLINE
  5
427
100
AcDbEntity
  8
MECHANICAL1
100
AcDb2dPolyline
 66
     1
 10
0.0
 20
0.0
 30
0.0
 70
     1
 40
0.004
 41
0.004
 75
     8
  0
VERTEX
  5
428
100
AcDbEntity
  8
MECHANICAL1
100
AcDbVertex
100
AcDb2dVertex
 10
8.258
 20
6.9
 30
0.0
 42
1.0
  0
VERTEX
  5
429
100
AcDbEntity
  8
MECHANICAL1
100
AcDbVertex
100
AcDb2dVertex
 10
8.262
 20
6.9
 30
0.0
 42
1.0
  0
SEQEND
  5
42A
100
AcDbEntity
  8
0
  0
POLYLINE
  5
42B
100
AcDbEntity
  8
MECHANICAL1
100
AcDb2dPolyline
 66
     1
 10
0.0
 20
0.0
 30
0.0
 40
0.008
 41
0.008
 75
     8
  0
VERTEX
  5
42C
100
AcDbEntity
  8
MECHANICAL1
100
AcDbVertex
100
AcDb2dVertex
 10
8.26
 20
6.84
 30
0.0
  0
VERTEX
  5
42D
100
AcDbEntity
  8
MECHANICAL1
100
AcDbVertex
100
AcDb2dVertex
 10
8.26
 20
6.9
 30
0.0
  0
SEQEND
  5
42E
100
AcDbEntity
  8
0
  0
POLYLINE
  5
42F
100
AcDbEntity
  8
MECHANICAL1
100
AcDb2dPolyline
 66
     1
 10
0.0
 20
0.0
 30
0.0
 70
     1
 40
0.004
 41
0.004
 75
     8
  0
VERTEX
  5
430
100
AcDbEntity
  8
MECHANICAL1
100
AcDbVertex
100
AcDb2dVertex
 10
8.258
 20
6.84
 30
0.0
 42
1.0
  0
VERTEX
  5
431
100
AcDbEntity
  8
MECHANICAL1
100
AcDbVertex
100
AcDb2dVertex
 10
8.262
 20
6.84
 30
0.0
 42
1.0
  0
SEQEND
  5
432
100
AcDbEntity
  8
0
  0
POLYLINE
  5
433
100
AcDbEntity
  8
MECHANICAL1
100
AcDb2dPolyline
 66
     1
 10
0.0
 20
0.0
 30
0.0
 70
     1
 40
0.004
 41
0.004
 75
     8
  0
VERTEX
  5
434
100
AcDbEntity
  8
MECHANICAL1
100
AcDbVertex
100
AcDb2dVertex
 10
8.258
 20
6.9
 30
0.0
 42
1.0
  0
VERTEX
  5
435
100
AcDbEntity
  8
MECHANICAL1
100
AcDbVertex
100
AcDb2dVertex
 10
8.262
 20
6.9
 30
0.0
 42
1.0
  0
SEQEND
  5
436
100
AcDbEntity
  8
0
  0
POLYLINE
  5
437
100
AcDbEntity
  8
MECHANICAL1
100
AcDb2dPolyline
 66
     1
 10
0.0
 20
0.0
 30
0.0
 40
0.008
 41
0.008
 75
     8
  0
VERTEX
  5
438
100
AcDbEntity
  8
MECHANICAL1
100
AcDbVertex
100
AcDb2dVertex
 10
8.26
 20
7.0
 30
0.0
  0
VERTEX
  5
439
100
AcDbEntity
  8
MECHANICAL1
100
AcDbVertex
100
AcDb2dVertex
 10
8.26
 20
7.05
 30
0.0
  0
SEQEND
  5
43A
100
AcDbEntity
  8
0
  0
POLYLINE
  5
43B
100
AcDbEntity
  8
MECHANICAL1
100
AcDb2dPolyline
 66
     1
 10
0.0
 20
0.0
 30
0.0
 70
     1
 40
0.004
 41
0.004
 75
     8
  0
VERTEX
  5
43C
100
AcDbEntity
  8
MECHANICAL1
100
AcDbVertex
100
AcDb2dVertex
 10
8.258
 20
7.0
 30
0.0
 42
1.0
  0
VERTEX
  5
43D
100
AcDbEntity
  8
MECHANICAL1
100
AcDbVertex
100
AcDb2dVertex
 10
8.262
 20
7.0
 30
0.0
 42
1.0
  0
SEQEND
  5
43E
100
AcDbEntity
  8
0
  0
POLYLINE
  5
43F
100
AcDbEntity
  8
MECHANICAL1
100
AcDb2dPolyline
 66
     1
 10
0.0
 20
0.0
 30
0.0
 70
     1
 40
0.004
 41
0.004
 75
     8
  0
VERTEX
  5
440
100
AcDbEntity
  8
MECHANICAL1
100
AcDbVertex
100
AcDb2dVertex
 10
8.258
 20
7.05
 30
0.0
 42
1.0
  0
VERTEX
  5
441
100
AcDbEntity
  8
MECHANICAL1
100
AcDbVertex
100
AcDb2dVertex
 10
8.262
 20
7.05
 30
0.0
 42
1.0
  0
SEQEND
  5
442
100
AcDbEntity
  8
0
  0
POLYLINE
  5
443
100
AcDbEntity
  8
MECHANICAL1
100
AcDb2dPolyline
 66
     1
 10
0.0
 20
0.0
 30
0.0
 40
0.008
 41
0.008
 75
     8
  0
VERTEX
  5
444
100
AcDbEntity
  8
MECHANICAL1
100
AcDbVertex
100
AcDb2dVertex
 10
7.77
 20
7.1
 30
0.0
  0
VERTEX
  5
445
100
AcDbEntity
  8
MECHANICAL1
100
AcDbVertex
100
AcDb2dVertex
 10
7.78
 20
7.12
 30
0.0
  0
SEQEND
  5
446
100
AcDbEntity
  8
0
  0
POLYLINE
  5
447
100
AcDbEntity
  8
MECHANICAL1
100
AcDb2dPolyline
 66
     1
 10
0.0
 20
0.0
 30
0.0
 70
     1
 40
0.004
 41
0.004
 75
     8
  0
VERTEX
  5
448
100
AcDbEntity
  8
MECHANICAL1
100
AcDbVertex
100
AcDb2dVertex
 10
7.768
 20
7.1
 30
0.0
 42
1.0
  0
VERTEX
  5
449
100
AcDbEntity
  8
MECHANICAL1
100
AcDbVertex
100
AcDb2dVertex
 10
7.772
 20
7.1
 30
0.0
 42
1.0
  0
SEQEND
  5
44A
100
AcDbEntity
  8
0
  0
POLYLINE
  5
44B
100
AcDbEntity
  8
MECHANICAL1
100
AcDb2dPolyline
 66
     1
 10
0.0
 20
0.0
 30
0.0
 70
     1
 40
0.004
 41
0.004
 75
     8
  0
VERTEX
  5
44C
100
AcDbEntity
  8
MECHANICAL1
100
AcDbVertex
100
AcDb2dVertex
 10
7.778
 20
7.12
 30
0.0
 42
1.0
  0
VERTEX
  5
44D
100
AcDbEntity
  8
MECHANICAL1
100
AcDbVertex
100
AcDb2dVertex
 10
7.782
 20
7.12
 30
0.0
 42
1.0
  0
SEQEND
  5
44E
100
AcDbEntity
  8
0
  0
POLYLINE
  5
44F
100
AcDbEntity
  8
MECHANICAL1
100
AcDb2dPolyline
 66
     1
 10
0.0
 20
0.0
 30
0.0
 40
0.008
 41
0.008
 75
     8
  0
VERTEX
  5
450
100
AcDbEntity
  8
MECHANICAL1
100
AcDbVertex
100
AcDb2dVertex
 10
7.76
 20
7.12
 30
0.0
  0
VERTEX
  5
451
100
AcDbEntity
  8
MECHANICAL1
100
AcDbVertex
100
AcDb2dVertex
 10
7.77
 20
7.1
 30
0.0
  0
SEQEND
  5
452
100
AcDbEntity
  8
0
  0
POLYLINE
  5
453
100
AcDbEntity
  8
MECHANICAL1
100
AcDb2dPolyline
 66
     1
 10
0.0
 20
0.0
 30
0.0
 70
     1
 40
0.004
 41
0.004
 75
     8
  0
VERTEX
  5
454
100
AcDbEntity
  8
MECHANICAL1
100
AcDbVertex
100
AcDb2dVertex
 10
7.758
 20
7.12
 30
0.0
 42
1.0
  0
VERTEX
  5
455
100
AcDbEntity
  8
MECHANICAL1
100
AcDbVertex
100
AcDb2dVertex
 10
7.762
 20
7.12
 30
0.0
 42
1.0
  0
SEQEND
  5
456
100
AcDbEntity
  8
0
  0
POLYLINE
  5
457
100
AcDbEntity
  8
MECHANICAL1
100
AcDb2dPolyline
 66
     1
 10
0.0
 20
0.0
 30
0.0
 70
     1
 40
0.004
 41
0.004
 75
     8
  0
VERTEX
  5
458
100
AcDbEntity
  8
MECHANICAL1
100
AcDbVertex
100
AcDb2dVertex
 10
7.768
 20
7.1
 30
0.0
 42
1.0
  0
VERTEX
  5
459
100
AcDbEntity
  8
MECHANICAL1
100
AcDbVertex
100
AcDb2dVertex
 10
7.772
 20
7.1
 30
0.0
 42
1.0
  0
SEQEND
  5
45A
100
AcDbEntity
  8
0
  0
POLYLINE
  5
45B
100
AcDbEntity
  8
MECHANICAL1
100
AcDb2dPolyline
 66
     1
 10
0.0
 20
0.0
 30
0.0
 40
0.008
 41
0.008
 75
     8
  0
VERTEX
  5
45C
100
AcDbEntity
  8
MECHANICAL1
100
AcDbVertex
100
AcDb2dVertex
 10
7.77
 20
7.0
 30
0.0
  0
VERTEX
  5
45D
100
AcDbEntity
  8
MECHANICAL1
100
AcDbVertex
100
AcDb2dVertex
 10
7.78
 20
6.98
 30
0.0
  0
SEQEND
  5
45E
100
AcDbEntity
  8
0
  0
POLYLINE
  5
45F
100
AcDbEntity
  8
MECHANICAL1
100
AcDb2dPolyline
 66
     1
 10
0.0
 20
0.0
 30
0.0
 70
     1
 40
0.004
 41
0.004
 75
     8
  0
VERTEX
  5
460
100
AcDbEntity
  8
MECHANICAL1
100
AcDbVertex
100
AcDb2dVertex
 10
7.768
 20
7.0
 30
0.0
 42
1.0
  0
VERTEX
  5
461
100
AcDbEntity
  8
MECHANICAL1
100
AcDbVertex
100
AcDb2dVertex
 10
7.772
 20
7.0
 30
0.0
 42
1.0
  0
SEQEND
  5
462
100
AcDbEntity
  8
0
  0
POLYLINE
  5
463
100
AcDbEntity
  8
MECHANICAL1
100
AcDb2dPolyline
 66
     1
 10
0.0
 20
0.0
 30
0.0
 70
     1
 40
0.004
 41
0.004
 75
     8
  0
VERTEX
  5
464
100
AcDbEntity
  8
MECHANICAL1
100
AcDbVertex
100
AcDb2dVertex
 10
7.778
 20
6.98
 30
0.0
 42
1.0
  0
VERTEX
  5
465
100
AcDbEntity
  8
MECHANICAL1
100
AcDbVertex
100
AcDb2dVertex
 10
7.782
 20
6.98
 30
0.0
 42
1.0
  0
SEQEND
  5
466
100
AcDbEntity
  8
0
  0
POLYLINE
  5
467
100
AcDbEntity
  8
MECHANICAL1
100
AcDb2dPolyline
 66
     1
 10
0.0
 20
0.0
 30
0.0
 40
0.008
 41
0.008
 75
     8
  0
VERTEX
  5
468
100
AcDbEntity
  8
MECHANICAL1
100
AcDbVertex
100
AcDb2dVertex
 10
7.76
 20
6.98
 30
0.0
  0
VERTEX
  5
469
100
AcDbEntity
  8
MECHANICAL1
100
AcDbVertex
100
AcDb2dVertex
 10
7.77
 20
7.0
 30
0.0
  0
SEQEND
  5
46A
100
AcDbEntity
  8
0
  0
POLYLINE
  5
46B
100
AcDbEntity
  8
MECHANICAL1
100
AcDb2dPolyline
 66
     1
 10
0.0
 20
0.0
 30
0.0
 70
     1
 40
0.004
 41
0.004
 75
     8
  0
VERTEX
  5
46C
100
AcDbEntity
  8
MECHANICAL1
100
AcDbVertex
100
AcDb2dVertex
 10
7.758
 20
6.98
 30
0.0
 42
1.0
  0
VERTEX
  5
46D
100
AcDbEntity
  8
MECHANICAL1
100
AcDbVertex
100
AcDb2dVertex
 10
7.762
 20
6.98
 30
0.0
 42
1.0
  0
SEQEND
  5
46E
100
AcDbEntity
  8
0
  0
POLYLINE
  5
46F
100
AcDbEntity
  8
MECHANICAL1
100
AcDb2dPolyline
 66
     1
 10
0.0
 20
0.0
 30
0.0
 70
     1
 40
0.004
 41
0.004
 75
     8
  0
VERTEX
  5
470
100
AcDbEntity
  8
MECHANICAL1
100
AcDbVertex
100
AcDb2dVertex
 10
7.768
 20
7.0
 30
0.0
 42
1.0
  0
VERTEX
  5
471
100
AcDbEntity
  8
MECHANICAL1
100
AcDbVertex
100
AcDb2dVertex
 10
7.772
 20
7.0
 30
0.0
 42
1.0
  0
SEQEND
  5
472
100
AcDbEntity
  8
0
  0
POLYLINE
  5
473
100
AcDbEntity
  8
MECHANICAL1
100
AcDb2dPolyline
 66
     1
 10
0.0
 20
0.0
 30
0.0
 40
0.008
 41
0.008
 75
     8
  0
VERTEX
  5
474
100
AcDbEntity
  8
MECHANICAL1
100
AcDbVertex
100
AcDb2dVertex
 10
7.77
 20
6.94
 30
0.0
  0
VERTEX
  5
475
100
AcDbEntity
  8
MECHANICAL1
100
AcDbVertex
100
AcDb2dVertex
 10
7.77
 20
7.0
 30
0.0
  0
SEQEND
  5
476
100
AcDbEntity
  8
0
  0
POLYLINE
  5
477
100
AcDbEntity
  8
MECHANICAL1
100
AcDb2dPolyline
 66
     1
 10
0.0
 20
0.0
 30
0.0
 70
     1
 40
0.004
 41
0.004
 75
     8
  0
VERTEX
  5
478
100
AcDbEntity
  8
MECHANICAL1
100
AcDbVertex
100
AcDb2dVertex
 10
7.768
 20
6.94
 30
0.0
 42
1.0
  0
VERTEX
  5
479
100
AcDbEntity
  8
MECHANICAL1
100
AcDbVertex
100
AcDb2dVertex
 10
7.772
 20
6.94
 30
0.0
 42
1.0
  0
SEQEND
  5
47A
100
AcDbEntity
  8
0
  0
POLYLINE
  5
47B
100
AcDbEntity
  8
MECHANICAL1
100
AcDb2dPolyline
 66
     1
 10
0.0
 20
0.0
 30
0.0
 70
     1
 40
0.004
 41
0.004
 75
     8
  0
VERTEX
  5
47C
100
AcDbEntity
  8
MECHANICAL1
100
AcDbVertex
100
AcDb2dVertex
 10
7.768
 20
7.0
 30
0.0
 42
1.0
  0
VERTEX
  5
47D
100
AcDbEntity
  8
MECHANICAL1
100
AcDbVertex
100
AcDb2dVertex
 10
7.772
 20
7.0
 30
0.0
 42
1.0
  0
SEQEND
  5
47E
100
AcDbEntity
  8
0
  0
POLYLINE
  5
47F
100
AcDbEntity
  8
MECHANICAL1
100
AcDb2dPolyline
 66
     1
 10
0.0
 20
0.0
 30
0.0
 40
0.008
 41
0.008
 75
     8
  0
VERTEX
  5
480
100
AcDbEntity
  8
MECHANICAL1
100
AcDbVertex
100
AcDb2dVertex
 10
7.77
 20
7.1
 30
0.0
  0
VERTEX
  5
481
100
AcDbEntity
  8
MECHANICAL1
100
AcDbVertex
100
AcDb2dVertex
 10
7.77
 20
7.15
 30
0.0
  0
SEQEND
  5
482
100
AcDbEntity
  8
0
  0
POLYLINE
  5
483
100
AcDbEntity
  8
MECHANICAL1
100
AcDb2dPolyline
 66
     1
 10
0.0
 20
0.0
 30
0.0
 70
     1
 40
0.004
 41
0.004
 75
     8
  0
VERTEX
  5
484
100
AcDbEntity
  8
MECHANICAL1
100
AcDbVertex
100
AcDb2dVertex
 10
7.768
 20
7.1
 30
0.0
 42
1.0
  0
VERTEX
  5
485
100
AcDbEntity
  8
MECHANICAL1
100
AcDbVertex
100
AcDb2dVertex
 10
7.772
 20
7.1
 30
0.0
 42
1.0
  0
SEQEND
  5
486
100
AcDbEntity
  8
0
  0
POLYLINE
  5
487
100
AcDbEntity
  8
MECHANICAL1
100
AcDb2dPolyline
 66
     1
 10
0.0
 20
0.0
 30
0.0
 70
     1
 40
0.004
 41
0.004
 75
     8
  0
VERTEX
  5
488
100
AcDbEntity
  8
MECHANICAL1
100
AcDbVertex
100
AcDb2dVertex
 10
7.768
 20
7.15
 30
0.0
 42
1.0
  0
VERTEX
  5
489
100
AcDbEntity
  8
MECHANICAL1
100
AcDbVertex
100
AcDb2dVertex
 10
7.772
 20
7.15
 30
0.0
 42
1.0
  0
SEQEND
  5
48A
100
AcDbEntity
  8
0
  0
POLYLINE
  5
48B
100
AcDbEntity
  8
MECHANICAL1
100
AcDb2dPolyline
 66
     1
 10
0.0
 20
0.0
 30
0.0
 40
0.008
 41
0.008
 75
     8
  0
VERTEX
  5
48C
100
AcDbEntity
  8
MECHANICAL1
100
AcDbVertex
100
AcDb2dVertex
 10
7.9
 20
6.9
 30
0.0
  0
VERTEX
  5
48D
100
AcDbEntity
  8
MECHANICAL1
100
AcDbVertex
100
AcDb2dVertex
 10
8.34
 20
6.9
 30
0.0
  0
SEQEND
  5
48E
100
AcDbEntity
  8
0
  0
POLYLINE
  5
48F
100
AcDbEntity
  8
MECHANICAL1
100
AcDb2dPolyline
 66
     1
 10
0.0
 20
0.0
 30
0.0
 70
     1
 40
0.004
 41
0.004
 75
     8
  0
VERTEX
  5
490
100
AcDbEntity
  8
MECHANICAL1
100
AcDbVertex
100
AcDb2dVertex
 10
7.898
 20
6.9
 30
0.0
 42
1.0
  0
VERTEX
  5
491
100
AcDbEntity
  8
MECHANICAL1
100
AcDbVertex
100
AcDb2dVertex
 10
7.902
 20
6.9
 30
0.0
 42
1.0
  0
SEQEND
  5
492
100
AcDbEntity
  8
0
  0
POLYLINE
  5
493
100
AcDbEntity
  8
MECHANICAL1
100
AcDb2dPolyline
 66
     1
 10
0.0
 20
0.0
 30
0.0
 70
     1
 40
0.004
 41
0.004
 75
     8
  0
VERTEX
  5
494
100
AcDbEntity
  8
MECHANICAL1
100
AcDbVertex
100
AcDb2dVertex
 10
8.338
 20
6.9
 30
0.0
 42
1.0
  0
VERTEX
  5
495
100
AcDbEntity
  8
MECHANICAL1
100
AcDbVertex
100
AcDb2dVertex
 10
8.342
 20
6.9
 30
0.0
 42
1.0
  0
SEQEND
  5
496
100
AcDbEntity
  8
0
  0
POLYLINE
  5
497
100
AcDbEntity
  8
MECHANICAL1
100
AcDb2dPolyline
 66
     1
 10
0.0
 20
0.0
 30
0.0
 40
0.008
 41
0.008
 75
     8
  0
VERTEX
  5
498
100
AcDbEntity
  8
MECHANICAL1
100
AcDbVertex
100
AcDb2dVertex
 10
7.68
 20
7.1
 30
0.0
  0
VERTEX
  5
499
100
AcDbEntity
  8
MECHANICAL1
100
AcDbVertex
100
AcDb2dVertex
 10
7.9
 20
7.1
 30
0.0
  0
SEQEND
  5
49A
100
AcDbEntity
  8
0
  0
POLYLINE
  5
49B
100
AcDbEntity
  8
MECHANICAL1
100
AcDb2dPolyline
 66
     1
 10
0.0
 20
0.0
 30
0.0
 70
     1
 40
0.004
 41
0.004
 75
     8
  0
VERTEX
  5
49C
100
AcDbEntity
  8
MECHANICAL1
100
AcDbVertex
100
AcDb2dVertex
 10
7.678
 20
7.1
 30
0.0
 42
1.0
  0
VERTEX
  5
49D
100
AcDbEntity
  8
MECHANICAL1
100
AcDbVertex
100
AcDb2dVertex
 10
7.682
 20
7.1
 30
0.0
 42
1.0
  0
SEQEND
  5
49E
100
AcDbEntity
  8
0
  0
POLYLINE
  5
49F
100
AcDbEntity
  8
MECHANICAL1
100
AcDb2dPolyline
 66
     1
 10
0.0
 20
0.0
 30
0.0
 70
     1
 40
0.004
 41
0.004
 75
     8
  0
VERTEX
  5
4A0
100
AcDbEntity
  8
MECHANICAL1
100
AcDbVertex
100
AcDb2dVertex
 10
7.898
 20
7.1
 30
0.0
 42
1.0
  0
VERTEX
  5
4A1
100
AcDbEntity
  8
MECHANICAL1
100
AcDbVertex
100
AcDb2dVertex
 10
7.902
 20
7.1
 30
0.0
 42
1.0
  0
SEQEND
  5
4A2
100
AcDbEntity
  8
0
  0
POLYLINE
  5
4A3
100
AcDbEntity
  8
MECHANICAL1
100
AcDb2dPolyline
 66
     1
 10
0.0
 20
0.0
 30
0.0
 40
0.008
 41
0.008
 75
     8
  0
VERTEX
  5
4A4
100
AcDbEntity
  8
MECHANICAL1
100
AcDbVertex
100
AcDb2dVertex
 10
9.122
 20
3.384
 30
0.0
  0
VERTEX
  5
4A5
100
AcDbEntity
  8
MECHANICAL1
100
AcDbVertex
100
AcDb2dVertex
 10
9.122
 20
4.017
 30
0.0
  0
SEQEND
  5
4A6
100
AcDbEntity
  8
0
  0
POLYLINE
  5
4A7
100
AcDbEntity
  8
MECHANICAL1
100
AcDb2dPolyline
 66
     1
 10
0.0
 20
0.0
 30
0.0
 70
     1
 40
0.004
 41
0.004
 75
     8
  0
VERTEX
  5
4A8
100
AcDbEntity
  8
MECHANICAL1
100
AcDbVertex
100
AcDb2dVertex
 10
9.12
 20
3.384
 30
0.0
 42
1.0
  0
VERTEX
  5
4A9
100
AcDbEntity
  8
MECHANICAL1
100
AcDbVertex
100
AcDb2dVertex
 10
9.124
 20
3.384
 30
0.0
 42
1.0
  0
SEQEND
  5
4AA
100
AcDbEntity
  8
0
  0
POLYLINE
  5
4AB
100
AcDbEntity
  8
MECHANICAL1
100
AcDb2dPolyline
 66
     1
 10
0.0
 20
0.0
 30
0.0
 70
     1
 40
0.004
 41
0.004
 75
     8
  0
VERTEX
  5
4AC
100
AcDbEntity
  8
MECHANICAL1
100
AcDbVertex
100
AcDb2dVertex
 10
9.12
 20
4.017
 30
0.0
 42
1.0
  0
VERTEX
  5
4AD
100
AcDbEntity
  8
MECHANICAL1
100
AcDbVertex
100
AcDb2dVertex
 10
9.124
 20
4.017
 30
0.0
 42
1.0
  0
SEQEND
  5
4AE
100
AcDbEntity
  8
0
  0
POLYLINE
  5
4AF
100
AcDbEntity
  8
MECHANICAL1
100
AcDb2dPolyline
 66
     1
 10
0.0
 20
0.0
 30
0.0
 40
0.008
 41
0.008
 75
     8
  0
VERTEX
  5
4B0
100
AcDbEntity
  8
MECHANICAL1
100
AcDbVertex
100
AcDb2dVertex
 10
9.122
 20
4.034
 30
0.0
  0
VERTEX
  5
4B1
100
AcDbEntity
  8
MECHANICAL1
100
AcDbVertex
100
AcDb2dVertex
 10
9.122
 20
4.09
 30
0.0
  0
SEQEND
  5
4B2
100
AcDbEntity
  8
0
  0
POLYLINE
  5
4B3
100
AcDbEntity
  8
MECHANICAL1
100
AcDb2dPolyline
 66
     1
 10
0.0
 20
0.0
 30
0.0
 70
     1
 40
0.004
 41
0.004
 75
     8
  0
VERTEX
  5
4B4
100
AcDbEntity
  8
MECHANICAL1
100
AcDbVertex
100
AcDb2dVertex
 10
9.12
 20
4.034
 30
0.0
 42
1.0
  0
VERTEX
  5
4B5
100
AcDbEntity
  8
MECHANICAL1
100
AcDbVertex
100
AcDb2dVertex
 10
9.124
 20
4.034
 30
0.0
 42
1.0
  0
SEQEND
  5
4B6
100
AcDbEntity
  8
0
  0
POLYLINE
  5
4B7
100
AcDbEntity
  8
MECHANICAL1
100
AcDb2dPolyline
 66
     1
 10
0.0
 20
0.0
 30
0.0
 70
     1
 40
0.004
 41
0.004
 75
     8
  0
VERTEX
  5
4B8
100
AcDbEntity
  8
MECHANICAL1
100
AcDbVertex
100
AcDb2dVertex
 10
9.12
 20
4.09
 30
0.0
 42
1.0
  0
VERTEX
  5
4B9
100
AcDbEntity
  8
MECHANICAL1
100
AcDbVertex
100
AcDb2dVertex
 10
9.124
 20
4.09
 30
0.0
 42
1.0
  0
SEQEND
  5
4BA
100
AcDbEntity
  8
0
  0
POLYLINE
  5
4BB
100
AcDbEntity
  8
MECHANICAL1
100
AcDb2dPolyline
 66
     1
 10
0.0
 20
0.0
 30
0.0
 40
0.008
 41
0.008
 75
     8
  0
VERTEX
  5
4BC
100
AcDbEntity
  8
MECHANICAL1
100
AcDbVertex
100
AcDb2dVertex
 10
9.122
 20
4.112
 30
0.0
  0
VERTEX
  5
4BD
100
AcDbEntity
  8
MECHANICAL1
100
AcDbVertex
100
AcDb2dVertex
 10
9.122
 20
4.187
 30
0.0
  0
SEQEND
  5
4BE
100
AcDbEntity
  8
0
  0
POLYLINE
  5
4BF
100
AcDbEntity
  8
MECHANICAL1
100
AcDb2dPolyline
 66
     1
 10
0.0
 20
0.0
 30
0.0
 70
     1
 40
0.004
 41
0.004
 75
     8
  0
VERTEX
  5
4C0
100
AcDbEntity
  8
MECHANICAL1
100
AcDbVertex
100
AcDb2dVertex
 10
9.12
 20
4.112
 30
0.0
 42
1.0
  0
VERTEX
  5
4C1
100
AcDbEntity
  8
MECHANICAL1
100
AcDbVertex
100
AcDb2dVertex
 10
9.124
 20
4.112
 30
0.0
 42
1.0
  0
SEQEND
  5
4C2
100
AcDbEntity
  8
0
  0
POLYLINE
  5
4C3
100
AcDbEntity
  8
MECHANICAL1
100
AcDb2dPolyline
 66
     1
 10
0.0
 20
0.0
 30
0.0
 70
     1
 40
0.004
 41
0.004
 75
     8
  0
VERTEX
  5
4C4
100
AcDbEntity
  8
MECHANICAL1
100
AcDbVertex
100
AcDb2dVertex
 10
9.12
 20
4.187
 30
0.0
 42
1.0
  0
VERTEX
  5
4C5
100
AcDbEntity
  8
MECHANICAL1
100
AcDbVertex
100
AcDb2dVertex
 10
9.124
 20
4.187
 30
0.0
 42
1.0
  0
SEQEND
  5
4C6
100
AcDbEntity
  8
0
  0
POLYLINE
  5
4C7
100
AcDbEntity
  8
MECHANICAL1
100
AcDb2dPolyline
 66
     1
 10
0.0
 20
0.0
 30
0.0
 40
0.008
 41
0.008
 75
     8
  0
VERTEX
  5
4C8
100
AcDbEntity
  8
MECHANICAL1
100
AcDbVertex
100
AcDb2dVertex
 10
6.878
 20
3.384
 30
0.0
  0
VERTEX
  5
4C9
100
AcDbEntity
  8
MECHANICAL1
100
AcDbVertex
100
AcDb2dVertex
 10
6.878
 20
4.017
 30
0.0
  0
SEQEND
  5
4CA
100
AcDbEntity
  8
0
  0
POLYLINE
  5
4CB
100
AcDbEntity
  8
MECHANICAL1
100
AcDb2dPolyline
 66
     1
 10
0.0
 20
0.0
 30
0.0
 70
     1
 40
0.004
 41
0.004
 75
     8
  0
VERTEX
  5
4CC
100
AcDbEntity
  8
MECHANICAL1
100
AcDbVertex
100
AcDb2dVertex
 10
6.876
 20
3.384
 30
0.0
 42
1.0
  0
VERTEX
  5
4CD
100
AcDbEntity
  8
MECHANICAL1
100
AcDbVertex
100
AcDb2dVertex
 10
6.88
 20
3.384
 30
0.0
 42
1.0
  0
SEQEND
  5
4CE
100
AcDbEntity
  8
0
  0
POLYLINE
  5
4CF
100
AcDbEntity
  8
MECHANICAL1
100
AcDb2dPolyline
 66
     1
 10
0.0
 20
0.0
 30
0.0
 70
     1
 40
0.004
 41
0.004
 75
     8
  0
VERTEX
  5
4D0
100
AcDbEntity
  8
MECHANICAL1
100
AcDbVertex
100
AcDb2dVertex
 10
6.876
 20
4.017
 30
0.0
 42
1.0
  0
VERTEX
  5
4D1
100
AcDbEntity
  8
MECHANICAL1
100
AcDbVertex
100
AcDb2dVertex
 10
6.88
 20
4.017
 30
0.0
 42
1.0
  0
SEQEND
  5
4D2
100
AcDbEntity
  8
0
  0
POLYLINE
  5
4D3
100
AcDbEntity
  8
MECHANICAL1
100
AcDb2dPolyline
 66
     1
 10
0.0
 20
0.0
 30
0.0
 40
0.008
 41
0.008
 75
     8
  0
VERTEX
  5
4D4
100
AcDbEntity
  8
MECHANICAL1
100
AcDbVertex
100
AcDb2dVertex
 10
6.878
 20
4.034
 30
0.0
  0
VERTEX
  5
4D5
100
AcDbEntity
  8
MECHANICAL1
100
AcDbVertex
100
AcDb2dVertex
 10
6.878
 20
4.09
 30
0.0
  0
SEQEND
  5
4D6
100
AcDbEntity
  8
0
  0
POLYLINE
  5
4D7
100
AcDbEntity
  8
MECHANICAL1
100
AcDb2dPolyline
 66
     1
 10
0.0
 20
0.0
 30
0.0
 70
     1
 40
0.004
 41
0.004
 75
     8
  0
VERTEX
  5
4D8
100
AcDbEntity
  8
MECHANICAL1
100
AcDbVertex
100
AcDb2dVertex
 10
6.876
 20
4.034
 30
0.0
 42
1.0
  0
VERTEX
  5
4D9
100
AcDbEntity
  8
MECHANICAL1
100
AcDbVertex
100
AcDb2dVertex
 10
6.88
 20
4.034
 30
0.0
 42
1.0
  0
SEQEND
  5
4DA
100
AcDbEntity
  8
0
  0
POLYLINE
  5
4DB
100
AcDbEntity
  8
MECHANICAL1
100
AcDb2dPolyline
 66
     1
 10
0.0
 20
0.0
 30
0.0
 70
     1
 40
0.004
 41
0.004
 75
     8
  0
VERTEX
  5
4DC
100
AcDbEntity
  8
MECHANICAL1
100
AcDbVertex
100
AcDb2dVertex
 10
6.876
 20
4.09
 30
0.0
 42
1.0
  0
VERTEX
  5
4DD
100
AcDbEntity
  8
MECHANICAL1
100
AcDbVertex
100
AcDb2dVertex
 10
6.88
 20
4.09
 30
0.0
 42
1.0
  0
SEQEND
  5
4DE
100
AcDbEntity
  8
0
  0
POLYLINE
  5
4DF
100
AcDbEntity
  8
MECHANICAL1
100
AcDb2dPolyline
 66
     1
 10
0.0
 20
0.0
 30
0.0
 40
0.008
 41
0.008
 75
     8
  0
VERTEX
  5
4E0
100
AcDbEntity
  8
MECHANICAL1
100
AcDbVertex
100
AcDb2dVertex
 10
6.878
 20
4.112
 30
0.0
  0
VERTEX
  5
4E1
100
AcDbEntity
  8
MECHANICAL1
100
AcDbVertex
100
AcDb2dVertex
 10
6.878
 20
4.187
 30
0.0
  0
SEQEND
  5
4E2
100
AcDbEntity
  8
0
  0
POLYLINE
  5
4E3
100
AcDbEntity
  8
MECHANICAL1
100
AcDb2dPolyline
 66
     1
 10
0.0
 20
0.0
 30
0.0
 70
     1
 40
0.004
 41
0.004
 75
     8
  0
VERTEX
  5
4E4
100
AcDbEntity
  8
MECHANICAL1
100
AcDbVertex
100
AcDb2dVertex
 10
6.876
 20
4.112
 30
0.0
 42
1.0
  0
VERTEX
  5
4E5
100
AcDbEntity
  8
MECHANICAL1
100
AcDbVertex
100
AcDb2dVertex
 10
6.88
 20
4.112
 30
0.0
 42
1.0
  0
SEQEND
  5
4E6
100
AcDbEntity
  8
0
  0
POLYLINE
  5
4E7
100
AcDbEntity
  8
MECHANICAL1
100
AcDb2dPolyline
 66
     1
 10
0.0
 20
0.0
 30
0.0
 70
     1
 40
0.004
 41
0.004
 75
     8
  0
VERTEX
  5
4E8
100
AcDbEntity
  8
MECHANICAL1
100
AcDbVertex
100
AcDb2dVertex
 10
6.876
 20
4.187
 30
0.0
 42
1.0
  0
VERTEX
  5
4E9
100
AcDbEntity
  8
MECHANICAL1
100
AcDbVertex
100
AcDb2dVertex
 10
6.88
 20
4.187
 30
0.0
 42
1.0
  0
SEQEND
  5
4EA
100
AcDbEntity
  8
0
  0
POLYLINE
  5
4EB
100
AcDbEntity
  8
MECHANICAL1
100
AcDb2dPolyline
 66
     1
 10
0.0
 20
0.0
 30
0.0
 40
0.008
 41
0.008
 75
     8
  0
VERTEX
  5
4EC
100
AcDbEntity
  8
MECHANICAL1
100
AcDbVertex
100
AcDb2dVertex
 10
4.129
 20
5.734
 30
0.0
  0
VERTEX
  5
4ED
100
AcDbEntity
  8
MECHANICAL1
100
AcDbVertex
100
AcDb2dVertex
 10
4.762
 20
5.734
 30
0.0
  0
SEQEND
  5
4EE
100
AcDbEntity
  8
0
  0
POLYLINE
  5
4EF
100
AcDbEntity
  8
MECHANICAL1
100
AcDb2dPolyline
 66
     1
 10
0.0
 20
0.0
 30
0.0
 70
     1
 40
0.004
 41
0.004
 75
     8
  0
VERTEX
  5
4F0
100
AcDbEntity
  8
MECHANICAL1
100
AcDbVertex
100
AcDb2dVertex
 10
4.127
 20
5.734
 30
0.0
 42
1.0
  0
VERTEX
  5
4F1
100
AcDbEntity
  8
MECHANICAL1
100
AcDbVertex
100
AcDb2dVertex
 10
4.131
 20
5.734
 30
0.0
 42
1.0
  0
SEQEND
  5
4F2
100
AcDbEntity
  8
0
  0
POLYLINE
  5
4F3
100
AcDbEntity
  8
MECHANICAL1
100
AcDb2dPolyline
 66
     1
 10
0.0
 20
0.0
 30
0.0
 70
     1
 40
0.004
 41
0.004
 75
     8
  0
VERTEX
  5
4F4
100
AcDbEntity
  8
MECHANICAL1
100
AcDbVertex
100
AcDb2dVertex
 10
4.76
 20
5.734
 30
0.0
 42
1.0
  0
VERTEX
  5
4F5
100
AcDbEntity
  8
MECHANICAL1
100
AcDbVertex
100
AcDb2dVertex
 10
4.764
 20
5.734
 30
0.0
 42
1.0
  0
SEQEND
  5
4F6
100
AcDbEntity
  8
0
  0
POLYLINE
  5
4F7
100
AcDbEntity
  8
MECHANICAL1
100
AcDb2dPolyline
 66
     1
 10
0.0
 20
0.0
 30
0.0
 40
0.008
 41
0.008
 75
     8
  0
VERTEX
  5
4F8
100
AcDbEntity
  8
MECHANICAL1
100
AcDbVertex
100
AcDb2dVertex
 10
4.779
 20
5.734
 30
0.0
  0
VERTEX
  5
4F9
100
AcDbEntity
  8
MECHANICAL1
100
AcDbVertex
100
AcDb2dVertex
 10
4.835
 20
5.734
 30
0.0
  0
SEQEND
  5
4FA
100
AcDbEntity
  8
0
  0
POLYLINE
  5
4FB
100
AcDbEntity
  8
MECHANICAL1
100
AcDb2dPolyline
 66
     1
 10
0.0
 20
0.0
 30
0.0
 70
     1
 40
0.004
 41
0.004
 75
     8
  0
VERTEX
  5
4FC
100
AcDbEntity
  8
MECHANICAL1
100
AcDbVertex
100
AcDb2dVertex
 10
4.777
 20
5.734
 30
0.0
 42
1.0
  0
VERTEX
  5
4FD
100
AcDbEntity
  8
MECHANICAL1
100
AcDbVertex
100
AcDb2dVertex
 10
4.781
 20
5.734
 30
0.0
 42
1.0
  0
SEQEND
  5
4FE
100
AcDbEntity
  8
0
  0
POLYLINE
  5
4FF
100
AcDbEntity
  8
MECHANICAL1
100
AcDb2dPolyline
 66
     1
 10
0.0
 20
0.0
 30
0.0
 70
     1
 40
0.004
 41
0.004
 75
     8
  0
VERTEX
  5
500
100
AcDbEntity
  8
MECHANICAL1
100
AcDbVertex
100
AcDb2dVertex
 10
4.833
 20
5.734
 30
0.0
 42
1.0
  0
VERTEX
  5
501
100
AcDbEntity
  8
MECHANICAL1
100
AcDbVertex
100
AcDb2dVertex
 10
4.837
 20
5.734
 30
0.0
 42
1.0
  0
SEQEND
  5
502
100
AcDbEntity
  8
0
  0
POLYLINE
  5
503
100
AcDbEntity
  8
MECHANICAL1
100
AcDb2dPolyline
 66
     1
 10
0.0
 20
0.0
 30
0.0
 40
0.008
 41
0.008
 75
     8
  0
VERTEX
  5
504
100
AcDbEntity
  8
MECHANICAL1
100
AcDbVertex
100
AcDb2dVertex
 10
4.857
 20
5.734
 30
0.0
  0
VERTEX
  5
505
100
AcDbEntity
  8
MECHANICAL1
100
AcDbVertex
100
AcDb2dVertex
 10
4.932
 20
5.734
 30
0.0
  0
SEQEND
  5
506
100
AcDbEntity
  8
0
  0
POLYLINE
  5
507
100
AcDbEntity
  8
MECHANICAL1
100
AcDb2dPolyline
 66
     1
 10
0.0
 20
0.0
 30
0.0
 70
     1
 40
0.004
 41
0.004
 75
     8
  0
VERTEX
  5
508
100
AcDbEntity
  8
MECHANICAL1
100
AcDbVertex
100
AcDb2dVertex
 10
4.855
 20
5.734
 30
0.0
 42
1.0
  0
VERTEX
  5
509
100
AcDbEntity
  8
MECHANICAL1
100
AcDbVertex
100
AcDb2dVertex
 10
4.859
 20
5.734
 30
0.0
 42
1.0
  0
SEQEND
  5
50A
100
AcDbEntity
  8
0
  0
POLYLINE
  5
50B
100
AcDbEntity
  8
MECHANICAL1
100
AcDb2dPolyline
 66
     1
 10
0.0
 20
0.0
 30
0.0
 70
     1
 40
0.004
 41
0.004
 75
     8
  0
VERTEX
  5
50C
100
AcDbEntity
  8
MECHANICAL1
100
AcDbVertex
100
AcDb2dVertex
 10
4.93
 20
5.734
 30
0.0
 42
1.0
  0
VERTEX
  5
50D
100
AcDbEntity
  8
MECHANICAL1
100
AcDbVertex
100
AcDb2dVertex
 10
4.934
 20
5.734
 30
0.0
 42
1.0
  0
SEQEND
  5
50E
100
AcDbEntity
  8
0
  0
POLYLINE
  5
50F
100
AcDbEntity
  8
MECHANICAL1
100
AcDb2dPolyline
 66
     1
 10
0.0
 20
0.0
 30
0.0
 40
0.008
 41
0.008
 75
     8
  0
VERTEX
  5
510
100
AcDbEntity
  8
MECHANICAL1
100
AcDbVertex
100
AcDb2dVertex
 10
4.079
 20
8.266
 30
0.0
  0
VERTEX
  5
511
100
AcDbEntity
  8
MECHANICAL1
100
AcDbVertex
100
AcDb2dVertex
 10
4.712
 20
8.266
 30
0.0
  0
SEQEND
  5
512
100
AcDbEntity
  8
0
  0
POLYLINE
  5
513
100
AcDbEntity
  8
MECHANICAL1
100
AcDb2dPolyline
 66
     1
 10
0.0
 20
0.0
 30
0.0
 70
     1
 40
0.004
 41
0.004
 75
     8
  0
VERTEX
  5
514
100
AcDbEntity
  8
MECHANICAL1
100
AcDbVertex
100
AcDb2dVertex
 10
4.077
 20
8.266
 30
0.0
 42
1.0
  0
VERTEX
  5
515
100
AcDbEntity
  8
MECHANICAL1
100
AcDbVertex
100
AcDb2dVertex
 10
4.081
 20
8.266
 30
0.0
 42
1.0
  0
SEQEND
  5
516
100
AcDbEntity
  8
0
  0
POLYLINE
  5
517
100
AcDbEntity
  8
MECHANICAL1
100
AcDb2dPolyline
 66
     1
 10
0.0
 20
0.0
 30
0.0
 70
     1
 40
0.004
 41
0.004
 75
     8
  0
VERTEX
  5
518
100
AcDbEntity
  8
MECHANICAL1
100
AcDbVertex
100
AcDb2dVertex
 10
4.71
 20
8.266
 30
0.0
 42
1.0
  0
VERTEX
  5
519
100
AcDbEntity
  8
MECHANICAL1
100
AcDbVertex
100
AcDb2dVertex
 10
4.714
 20
8.266
 30
0.0
 42
1.0
  0
SEQEND
  5
51A
100
AcDbEntity
  8
0
  0
POLYLINE
  5
51B
100
AcDbEntity
  8
MECHANICAL1
100
AcDb2dPolyline
 66
     1
 10
0.0
 20
0.0
 30
0.0
 40
0.008
 41
0.008
 75
     8
  0
VERTEX
  5
51C
100
AcDbEntity
  8
MECHANICAL1
100
AcDbVertex
100
AcDb2dVertex
 10
4.729
 20
8.266
 30
0.0
  0
VERTEX
  5
51D
100
AcDbEntity
  8
MECHANICAL1
100
AcDbVertex
100
AcDb2dVertex
 10
4.785
 20
8.266
 30
0.0
  0
SEQEND
  5
51E
100
AcDbEntity
  8
0
  0
POLYLINE
  5
51F
100
AcDbEntity
  8
MECHANICAL1
100
AcDb2dPolyline
 66
     1
 10
0.0
 20
0.0
 30
0.0
 70
     1
 40
0.004
 41
0.004
 75
     8
  0
VERTEX
  5
520
100
AcDbEntity
  8
MECHANICAL1
100
AcDbVertex
100
AcDb2dVertex
 10
4.727
 20
8.266
 30
0.0
 42
1.0
  0
VERTEX
  5
521
100
AcDbEntity
  8
MECHANICAL1
100
AcDbVertex
100
AcDb2dVertex
 10
4.731
 20
8.266
 30
0.0
 42
1.0
  0
SEQEND
  5
522
100
AcDbEntity
  8
0
  0
POLYLINE
  5
523
100
AcDbEntity
  8
MECHANICAL1
100
AcDb2dPolyline
 66
     1
 10
0.0
 20
0.0
 30
0.0
 70
     1
 40
0.004
 41
0.004
 75
     8
  0
VERTEX
  5
524
100
AcDbEntity
  8
MECHANICAL1
100
AcDbVertex
100
AcDb2dVertex
 10
4.783
 20
8.266
 30
0.0
 42
1.0
  0
VERTEX
  5
525
100
AcDbEntity
  8
MECHANICAL1
100
AcDbVertex
100
AcDb2dVertex
 10
4.787
 20
8.266
 30
0.0
 42
1.0
  0
SEQEND
  5
526
100
AcDbEntity
  8
0
  0
POLYLINE
  5
527
100
AcDbEntity
  8
MECHANICAL1
100
AcDb2dPolyline
 66
     1
 10
0.0
 20
0.0
 30
0.0
 40
0.008
 41
0.008
 75
     8
  0
VERTEX
  5
528
100
AcDbEntity
  8
MECHANICAL1
100
AcDbVertex
100
AcDb2dVertex
 10
4.807
 20
8.266
 30
0.0
  0
VERTEX
  5
529
100
AcDbEntity
  8
MECHANICAL1
100
AcDbVertex
100
AcDb2dVertex
 10
4.882
 20
8.266
 30
0.0
  0
SEQEND
  5
52A
100
AcDbEntity
  8
0
  0
POLYLINE
  5
52B
100
AcDbEntity
  8
MECHANICAL1
100
AcDb2dPolyline
 66
     1
 10
0.0
 20
0.0
 30
0.0
 70
     1
 40
0.004
 41
0.004
 75
     8
  0
VERTEX
  5
52C
100
AcDbEntity
  8
MECHANICAL1
100
AcDbVertex
100
AcDb2dVertex
 10
4.805
 20
8.266
 30
0.0
 42
1.0
  0
VERTEX
  5
52D
100
AcDbEntity
  8
MECHANICAL1
100
AcDbVertex
100
AcDb2dVertex
 10
4.809
 20
8.266
 30
0.0
 42
1.0
  0
SEQEND
  5
52E
100
AcDbEntity
  8
0
  0
POLYLINE
  5
52F
100
AcDbEntity
  8
MECHANICAL1
100
AcDb2dPolyline
 66
     1
 10
0.0
 20
0.0
 30
0.0
 70
     1
 40
0.004
 41
0.004
 75
     8
  0
VERTEX
  5
530
100
AcDbEntity
  8
MECHANICAL1
100
AcDbVertex
100
AcDb2dVertex
 10
4.88
 20
8.266
 30
0.0
 42
1.0
  0
VERTEX
  5
531
100
AcDbEntity
  8
MECHANICAL1
100
AcDbVertex
100
AcDb2dVertex
 10
4.884
 20
8.266
 30
0.0
 42
1.0
  0
SEQEND
  5
532
100
AcDbEntity
  8
0
  0
POLYLINE
  5
533
100
AcDbEntity
  8
MECHANICAL1
100
AcDb2dPolyline
 66
     1
 10
0.0
 20
0.0
 30
0.0
 40
0.008
 41
0.008
 75
     8
  0
VERTEX
  5
534
100
AcDbEntity
  8
MECHANICAL1
100
AcDbVertex
100
AcDb2dVertex
 10
8.18
 20
7.0
 30
0.0
  0
VERTEX
  5
535
100
AcDbEntity
  8
MECHANICAL1
100
AcDbVertex
100
AcDb2dVertex
 10
12.11
 20
7.0
 30
0.0
  0
SEQEND
  5
536
100
AcDbEntity
  8
0
  0
POLYLINE
  5
537
100
AcDbEntity
  8
MECHANICAL1
100
AcDb2dPolyline
 66
     1
 10
0.0
 20
0.0
 30
0.0
 70
     1
 40
0.004
 41
0.004
 75
     8
  0
VERTEX
  5
538
100
AcDbEntity
  8
MECHANICAL1
100
AcDbVertex
100
AcDb2dVertex
 10
8.178
 20
7.0
 30
0.0
 42
1.0
  0
VERTEX
  5
539
100
AcDbEntity
  8
MECHANICAL1
100
AcDbVertex
100
AcDb2dVertex
 10
8.182
 20
7.0
 30
0.0
 42
1.0
  0
SEQEND
  5
53A
100
AcDbEntity
  8
0
  0
POLYLINE
  5
53B
100
AcDbEntity
  8
MECHANICAL1
100
AcDb2dPolyline
 66
     1
 10
0.0
 20
0.0
 30
0.0
 70
     1
 40
0.004
 41
0.004
 75
     8
  0
VERTEX
  5
53C
100
AcDbEntity
  8
MECHANICAL1
100
AcDbVertex
100
AcDb2dVertex
 10
12.108
 20
7.0
 30
0.0
 42
1.0
  0
VERTEX
  5
53D
100
AcDbEntity
  8
MECHANICAL1
100
AcDbVertex
100
AcDb2dVertex
 10
12.112
 20
7.0
 30
0.0
 42
1.0
  0
SEQEND
  5
53E
100
AcDbEntity
  8
0
  0
POLYLINE
  5
53F
100
AcDbEntity
  8
MECHANICAL1
100
AcDb2dPolyline
 66
     1
 10
0.0
 20
0.0
 30
0.0
 40
0.008
 41
0.008
 75
     8
  0
VERTEX
  5
540
100
AcDbEntity
  8
MECHANICAL1
100
AcDbVertex
100
AcDb2dVertex
 10
3.72
 20
7.0
 30
0.0
  0
VERTEX
  5
541
100
AcDbEntity
  8
MECHANICAL1
100
AcDbVertex
100
AcDb2dVertex
 10
7.83
 20
7.0
 30
0.0
  0
SEQEND
  5
542
100
AcDbEntity
  8
0
  0
POLYLINE
  5
543
100
AcDbEntity
  8
MECHANICAL1
100
AcDb2dPolyline
 66
     1
 10
0.0
 20
0.0
 30
0.0
 70
     1
 40
0.004
 41
0.004
 75
     8
  0
VERTEX
  5
544
100
AcDbEntity
  8
MECHANICAL1
100
AcDbVertex
100
AcDb2dVertex
 10
3.718
 20
7.0
 30
0.0
 42
1.0
  0
VERTEX
  5
545
100
AcDbEntity
  8
MECHANICAL1
100
AcDbVertex
100
AcDb2dVertex
 10
3.722
 20
7.0
 30
0.0
 42
1.0
  0
SEQEND
  5
546
100
AcDbEntity
  8
0
  0
POLYLINE
  5
547
100
AcDbEntity
  8
MECHANICAL1
100
AcDb2dPolyline
 66
     1
 10
0.0
 20
0.0
 30
0.0
 70
     1
 40
0.004
 41
0.004
 75
     8
  0
VERTEX
  5
548
100
AcDbEntity
  8
MECHANICAL1
100
AcDbVertex
100
AcDb2dVertex
 10
7.828
 20
7.0
 30
0.0
 42
1.0
  0
VERTEX
  5
549
100
AcDbEntity
  8
MECHANICAL1
100
AcDbVertex
100
AcDb2dVertex
 10
7.832
 20
7.0
 30
0.0
 42
1.0
  0
SEQEND
  5
54A
100
AcDbEntity
  8
0
  0
POLYLINE
  5
54B
100
AcDbEntity
  8
MECHANICAL1
100
AcDb2dPolyline
 66
     1
 10
0.0
 20
0.0
 30
0.0
 40
0.008
 41
0.008
 75
     8
  0
VERTEX
  5
54C
100
AcDbEntity
  8
MECHANICAL1
100
AcDbVertex
100
AcDb2dVertex
 10
7.83
 20
7.0
 30
0.0
  0
VERTEX
  5
54D
100
AcDbEntity
  8
MECHANICAL1
100
AcDbVertex
100
AcDb2dVertex
 10
8.19
 20
7.0
 30
0.0
  0
SEQEND
  5
54E
100
AcDbEntity
  8
0
  0
POLYLINE
  5
54F
100
AcDbEntity
  8
MECHANICAL1
100
AcDb2dPolyline
 66
     1
 10
0.0
 20
0.0
 30
0.0
 70
     1
 40
0.004
 41
0.004
 75
     8
  0
VERTEX
  5
550
100
AcDbEntity
  8
MECHANICAL1
100
AcDbVertex
100
AcDb2dVertex
 10
7.828
 20
7.0
 30
0.0
 42
1.0
  0
VERTEX
  5
551
100
AcDbEntity
  8
MECHANICAL1
100
AcDbVertex
100
AcDb2dVertex
 10
7.832
 20
7.0
 30
0.0
 42
1.0
  0
SEQEND
  5
552
100
AcDbEntity
  8
0
  0
POLYLINE
  5
553
100
AcDbEntity
  8
MECHANICAL1
100
AcDb2dPolyline
 66
     1
 10
0.0
 20
0.0
 30
0.0
 70
     1
 40
0.004
 41
0.004
 75
     8
  0
VERTEX
  5
554
100
AcDbEntity
  8
MECHANICAL1
100
AcDbVertex
100
AcDb2dVertex
 10
8.188
 20
7.0
 30
0.0
 42
1.0
  0
VERTEX
  5
555
100
AcDbEntity
  8
MECHANICAL1
100
AcDbVertex
100
AcDb2dVertex
 10
8.192
 20
7.0
 30
0.0
 42
1.0
  0
SEQEND
  5
556
100
AcDbEntity
  8
0
  0
POLYLINE
  5
557
100
AcDbEntity
  8
MECHANICAL1
100
AcDb2dPolyline
 66
     1
 10
0.0
 20
0.0
 30
0.0
 40
0.008
 41
0.008
 75
     8
  0
VERTEX
  5
558
100
AcDbEntity
  8
MECHANICAL1
100
AcDbVertex
100
AcDb2dVertex
 10
8.0
 20
8.725
 30
0.0
  0
VERTEX
  5
559
100
AcDbEntity
  8
MECHANICAL1
100
AcDbVertex
100
AcDb2dVertex
 10
8.0
 20
10.38
 30
0.0
  0
SEQEND
  5
55A
100
AcDbEntity
  8
0
  0
POLYLINE
  5
55B
100
AcDbEntity
  8
MECHANICAL1
100
AcDb2dPolyline
 66
     1
 10
0.0
 20
0.0
 30
0.0
 70
     1
 40
0.004
 41
0.004
 75
     8
  0
VERTEX
  5
55C
100
AcDbEntity
  8
MECHANICAL1
100
AcDbVertex
100
AcDb2dVertex
 10
7.998
 20
8.725
 30
0.0
 42
1.0
  0
VERTEX
  5
55D
100
AcDbEntity
  8
MECHANICAL1
100
AcDbVertex
100
AcDb2dVertex
 10
8.002
 20
8.725
 30
0.0
 42
1.0
  0
SEQEND
  5
55E
100
AcDbEntity
  8
0
  0
POLYLINE
  5
55F
100
AcDbEntity
  8
MECHANICAL1
100
AcDb2dPolyline
 66
     1
 10
0.0
 20
0.0
 30
0.0
 70
     1
 40
0.004
 41
0.004
 75
     8
  0
VERTEX
  5
560
100
AcDbEntity
  8
MECHANICAL1
100
AcDbVertex
100
AcDb2dVertex
 10
7.998
 20
10.38
 30
0.0
 42
1.0
  0
VERTEX
  5
561
100
AcDbEntity
  8
MECHANICAL1
100
AcDbVertex
100
AcDb2dVertex
 10
8.002
 20
10.38
 30
0.0
 42
1.0
  0
SEQEND
  5
562
100
AcDbEntity
  8
0
  0
POLYLINE
  5
563
100
AcDbEntity
  8
MECHANICAL1
100
AcDb2dPolyline
 66
     1
 10
0.0
 20
0.0
 30
0.0
 40
0.008
 41
0.008
 75
     8
  0
VERTEX
  5
564
100
AcDbEntity
  8
MECHANICAL1
100
AcDbVertex
100
AcDb2dVertex
 10
8.0
 20
8.685
 30
0.0
  0
VERTEX
  5
565
100
AcDbEntity
  8
MECHANICAL1
100
AcDbVertex
100
AcDb2dVertex
 10
8.0
 20
8.71
 30
0.0
  0
SEQEND
  5
566
100
AcDbEntity
  8
0
  0
POLYLINE
  5
567
100
AcDbEntity
  8
MECHANICAL1
100
AcDb2dPolyline
 66
     1
 10
0.0
 20
0.0
 30
0.0
 70
     1
 40
0.004
 41
0.004
 75
     8
  0
VERTEX
  5
568
100
AcDbEntity
  8
MECHANICAL1
100
AcDbVertex
100
AcDb2dVertex
 10
7.998
 20
8.685
 30
0.0
 42
1.0
  0
VERTEX
  5
569
100
AcDbEntity
  8
MECHANICAL1
100
AcDbVertex
100
AcDb2dVertex
 10
8.002
 20
8.685
 30
0.0
 42
1.0
  0
SEQEND
  5
56A
100
AcDbEntity
  8
0
  0
POLYLINE
  5
56B
100
AcDbEntity
  8
MECHANICAL1
100
AcDb2dPolyline
 66
     1
 10
0.0
 20
0.0
 30
0.0
 70
     1
 40
0.004
 41
0.004
 75
     8
  0
VERTEX
  5
56C
100
AcDbEntity
  8
MECHANICAL1
100
AcDbVertex
100
AcDb2dVertex
 10
7.998
 20
8.71
 30
0.0
 42
1.0
  0
VERTEX
  5
56D
100
AcDbEntity
  8
MECHANICAL1
100
AcDbVertex
100
AcDb2dVertex
 10
8.002
 20
8.71
 30
0.0
 42
1.0
  0
SEQEND
  5
56E
100
AcDbEntity
  8
0
  0
POLYLINE
  5
56F
100
AcDbEntity
  8
MECHANICAL1
100
AcDb2dPolyline
 66
     1
 10
0.0
 20
0.0
 30
0.0
 40
0.008
 41
0.008
 75
     8
  0
VERTEX
  5
570
100
AcDbEntity
  8
MECHANICAL1
100
AcDbVertex
100
AcDb2dVertex
 10
8.0
 20
7.255
 30
0.0
  0
VERTEX
  5
571
100
AcDbEntity
  8
MECHANICAL1
100
AcDbVertex
100
AcDb2dVertex
 10
8.0
 20
8.665
 30
0.0
  0
SEQEND
  5
572
100
AcDbEntity
  8
0
  0
POLYLINE
  5
573
100
AcDbEntity
  8
MECHANICAL1
100
AcDb2dPolyline
 66
     1
 10
0.0
 20
0.0
 30
0.0
 70
     1
 40
0.004
 41
0.004
 75
     8
  0
VERTEX
  5
574
100
AcDbEntity
  8
MECHANICAL1
100
AcDbVertex
100
AcDb2dVertex
 10
7.998
 20
7.255
 30
0.0
 42
1.0
  0
VERTEX
  5
575
100
AcDbEntity
  8
MECHANICAL1
100
AcDbVertex
100
AcDb2dVertex
 10
8.002
 20
7.255
 30
0.0
 42
1.0
  0
SEQEND
  5
576
100
AcDbEntity
  8
0
  0
POLYLINE
  5
577
100
AcDbEntity
  8
MECHANICAL1
100
AcDb2dPolyline
 66
     1
 10
0.0
 20
0.0
 30
0.0
 70
     1
 40
0.004
 41
0.004
 75
     8
  0
VERTEX
  5
578
100
AcDbEntity
  8
MECHANICAL1
100
AcDbVertex
100
AcDb2dVertex
 10
7.998
 20
8.665
 30
0.0
 42
1.0
  0
VERTEX
  5
579
100
AcDbEntity
  8
MECHANICAL1
100
AcDbVertex
100
AcDb2dVertex
 10
8.002
 20
8.665
 30
0.0
 42
1.0
  0
SEQEND
  5
57A
100
AcDbEntity
  8
0
  0
POLYLINE
  5
57B
100
AcDbEntity
  8
MECHANICAL1
100
AcDb2dPolyline
 66
     1
 10
0.0
 20
0.0
 30
0.0
 40
0.008
 41
0.008
 75
     8
  0
VERTEX
  5
57C
100
AcDbEntity
  8
MECHANICAL1
100
AcDbVertex
100
AcDb2dVertex
 10
8.0
 20
7.22
 30
0.0
  0
VERTEX
  5
57D
100
AcDbEntity
  8
MECHANICAL1
100
AcDbVertex
100
AcDb2dVertex
 10
8.0
 20
7.235
 30
0.0
  0
SEQEND
  5
57E
100
AcDbEntity
  8
0
  0
POLYLINE
  5
57F
100
AcDbEntity
  8
MECHANICAL1
100
AcDb2dPolyline
 66
     1
 10
0.0
 20
0.0
 30
0.0
 70
     1
 40
0.004
 41
0.004
 75
     8
  0
VERTEX
  5
580
100
AcDbEntity
  8
MECHANICAL1
100
AcDbVertex
100
AcDb2dVertex
 10
7.998
 20
7.22
 30
0.0
 42
1.0
  0
VERTEX
  5
581
100
AcDbEntity
  8
MECHANICAL1
100
AcDbVertex
100
AcDb2dVertex
 10
8.002
 20
7.22
 30
0.0
 42
1.0
  0
SEQEND
  5
582
100
AcDbEntity
  8
0
  0
POLYLINE
  5
583
100
AcDbEntity
  8
MECHANICAL1
100
AcDb2dPolyline
 66
     1
 10
0.0
 20
0.0
 30
0.0
 70
     1
 40
0.004
 41
0.004
 75
     8
  0
VERTEX
  5
584
100
AcDbEntity
  8
MECHANICAL1
100
AcDbVertex
100
AcDb2dVertex
 10
7.998
 20
7.235
 30
0.0
 42
1.0
  0
VERTEX
  5
585
100
AcDbEntity
  8
MECHANICAL1
100
AcDbVertex
100
AcDb2dVertex
 10
8.002
 20
7.235
 30
0.0
 42
1.0
  0
SEQEND
  5
586
100
AcDbEntity
  8
0
  0
POLYLINE
  5
587
100
AcDbEntity
  8
MECHANICAL1
100
AcDb2dPolyline
 66
     1
 10
0.0
 20
0.0
 30
0.0
 40
0.008
 41
0.008
 75
     8
  0
VERTEX
  5
588
100
AcDbEntity
  8
MECHANICAL1
100
AcDbVertex
100
AcDb2dVertex
 10
8.0
 20
3.065
 30
0.0
  0
VERTEX
  5
589
100
AcDbEntity
  8
MECHANICAL1
100
AcDbVertex
100
AcDb2dVertex
 10
8.0
 20
5.215
 30
0.0
  0
SEQEND
  5
58A
100
AcDbEntity
  8
0
  0
POLYLINE
  5
58B
100
AcDbEntity
  8
MECHANICAL1
100
AcDb2dPolyline
 66
     1
 10
0.0
 20
0.0
 30
0.0
 70
     1
 40
0.004
 41
0.004
 75
     8
  0
VERTEX
  5
58C
100
AcDbEntity
  8
MECHANICAL1
100
AcDbVertex
100
AcDb2dVertex
 10
7.998
 20
3.065
 30
0.0
 42
1.0
  0
VERTEX
  5
58D
100
AcDbEntity
  8
MECHANICAL1
100
AcDbVertex
100
AcDb2dVertex
 10
8.002
 20
3.065
 30
0.0
 42
1.0
  0
SEQEND
  5
58E
100
AcDbEntity
  8
0
  0
POLYLINE
  5
58F
100
AcDbEntity
  8
MECHANICAL1
100
AcDb2dPolyline
 66
     1
 10
0.0
 20
0.0
 30
0.0
 70
     1
 40
0.004
 41
0.004
 75
     8
  0
VERTEX
  5
590
100
AcDbEntity
  8
MECHANICAL1
100
AcDbVertex
100
AcDb2dVertex
 10
7.998
 20
5.215
 30
0.0
 42
1.0
  0
VERTEX
  5
591
100
AcDbEntity
  8
MECHANICAL1
100
AcDbVertex
100
AcDb2dVertex
 10
8.002
 20
5.215
 30
0.0
 42
1.0
  0
SEQEND
  5
592
100
AcDbEntity
  8
0
  0
POLYLINE
  5
593
100
AcDbEntity
  8
MECHANICAL1
100
AcDb2dPolyline
 66
     1
 10
0.0
 20
0.0
 30
0.0
 40
0.008
 41
0.008
 75
     8
  0
VERTEX
  5
594
100
AcDbEntity
  8
MECHANICAL1
100
AcDbVertex
100
AcDb2dVertex
 10
8.0
 20
5.23
 30
0.0
  0
VERTEX
  5
595
100
AcDbEntity
  8
MECHANICAL1
100
AcDbVertex
100
AcDb2dVertex
 10
8.0
 20
5.25
 30
0.0
  0
SEQEND
  5
596
100
AcDbEntity
  8
0
  0
POLYLINE
  5
597
100
AcDbEntity
  8
MECHANICAL1
100
AcDb2dPolyline
 66
     1
 10
0.0
 20
0.0
 30
0.0
 70
     1
 40
0.004
 41
0.004
 75
     8
  0
VERTEX
  5
598
100
AcDbEntity
  8
MECHANICAL1
100
AcDbVertex
100
AcDb2dVertex
 10
7.998
 20
5.23
 30
0.0
 42
1.0
  0
VERTEX
  5
599
100
AcDbEntity
  8
MECHANICAL1
100
AcDbVertex
100
AcDb2dVertex
 10
8.002
 20
5.23
 30
0.0
 42
1.0
  0
SEQEND
  5
59A
100
AcDbEntity
  8
0
  0
POLYLINE
  5
59B
100
AcDbEntity
  8
MECHANICAL1
100
AcDb2dPolyline
 66
     1
 10
0.0
 20
0.0
 30
0.0
 70
     1
 40
0.004
 41
0.004
 75
     8
  0
VERTEX
  5
59C
100
AcDbEntity
  8
MECHANICAL1
100
AcDbVertex
100
AcDb2dVertex
 10
7.998
 20
5.25
 30
0.0
 42
1.0
  0
VERTEX
  5
59D
100
AcDbEntity
  8
MECHANICAL1
100
AcDbVertex
100
AcDb2dVertex
 10
8.002
 20
5.25
 30
0.0
 42
1.0
  0
SEQEND
  5
59E
100
AcDbEntity
  8
0
  0
POLYLINE
  5
59F
100
AcDbEntity
  8
MECHANICAL1
100
AcDb2dPolyline
 66
     1
 10
0.0
 20
0.0
 30
0.0
 40
0.008
 41
0.008
 75
     8
  0
VERTEX
  5
5A0
100
AcDbEntity
  8
MECHANICAL1
100
AcDbVertex
100
AcDb2dVertex
 10
8.0
 20
5.265
 30
0.0
  0
VERTEX
  5
5A1
100
AcDbEntity
  8
MECHANICAL1
100
AcDbVertex
100
AcDb2dVertex
 10
8.0
 20
6.74
 30
0.0
  0
SEQEND
  5
5A2
100
AcDbEntity
  8
0
  0
POLYLINE
  5
5A3
100
AcDbEntity
  8
MECHANICAL1
100
AcDb2dPolyline
 66
     1
 10
0.0
 20
0.0
 30
0.0
 70
     1
 40
0.004
 41
0.004
 75
     8
  0
VERTEX
  5
5A4
100
AcDbEntity
  8
MECHANICAL1
100
AcDbVertex
100
AcDb2dVertex
 10
7.998
 20
5.265
 30
0.0
 42
1.0
  0
VERTEX
  5
5A5
100
AcDbEntity
  8
MECHANICAL1
100
AcDbVertex
100
AcDb2dVertex
 10
8.002
 20
5.265
 30
0.0
 42
1.0
  0
SEQEND
  5
5A6
100
AcDbEntity
  8
0
  0
POLYLINE
  5
5A7
100
AcDbEntity
  8
MECHANICAL1
100
AcDb2dPolyline
 66
     1
 10
0.0
 20
0.0
 30
0.0
 70
     1
 40
0.004
 41
0.004
 75
     8
  0
VERTEX
  5
5A8
100
AcDbEntity
  8
MECHANICAL1
100
AcDbVertex
100
AcDb2dVertex
 10
7.998
 20
6.74
 30
0.0
 42
1.0
  0
VERTEX
  5
5A9
100
AcDbEntity
  8
MECHANICAL1
100
AcDbVertex
100
AcDb2dVertex
 10
8.002
 20
6.74
 30
0.0
 42
1.0
  0
SEQEND
  5
5AA
100
AcDbEntity
  8
0
  0
POLYLINE
  5
5AB
100
AcDbEntity
  8
MECHANICAL1
100
AcDb2dPolyline
 66
     1
 10
0.0
 20
0.0
 30
0.0
 40
0.008
 41
0.008
 75
     8
  0
VERTEX
  5
5AC
100
AcDbEntity
  8
MECHANICAL1
100
AcDbVertex
100
AcDb2dVertex
 10
8.0
 20
6.755
 30
0.0
  0
VERTEX
  5
5AD
100
AcDbEntity
  8
MECHANICAL1
100
AcDbVertex
100
AcDb2dVertex
 10
8.0
 20
6.775
 30
0.0
  0
SEQEND
  5
5AE
100
AcDbEntity
  8
0
  0
POLYLINE
  5
5AF
100
AcDbEntity
  8
MECHANICAL1
100
AcDb2dPolyline
 66
     1
 10
0.0
 20
0.0
 30
0.0
 70
     1
 40
0.004
 41
0.004
 75
     8
  0
VERTEX
  5
5B0
100
AcDbEntity
  8
MECHANICAL1
100
AcDbVertex
100
AcDb2dVertex
 10
7.998
 20
6.755
 30
0.0
 42
1.0
  0
VERTEX
  5
5B1
100
AcDbEntity
  8
MECHANICAL1
100
AcDbVertex
100
AcDb2dVertex
 10
8.002
 20
6.755
 30
0.0
 42
1.0
  0
SEQEND
  5
5B2
100
AcDbEntity
  8
0
  0
POLYLINE
  5
5B3
100
AcDbEntity
  8
MECHANICAL1
100
AcDb2dPolyline
 66
     1
 10
0.0
 20
0.0
 30
0.0
 70
     1
 40
0.004
 41
0.004
 75
     8
  0
VERTEX
  5
5B4
100
AcDbEntity
  8
MECHANICAL1
100
AcDbVertex
100
AcDb2dVertex
 10
7.998
 20
6.775
 30
0.0
 42
1.0
  0
VERTEX
  5
5B5
100
AcDbEntity
  8
MECHANICAL1
100
AcDbVertex
100
AcDb2dVertex
 10
8.002
 20
6.775
 30
0.0
 42
1.0
  0
SEQEND
  5
5B6
100
AcDbEntity
  8
0
  0
POLYLINE
  5
5B7
100
AcDbEntity
  8
MECHANICAL1
100
AcDb2dPolyline
 66
     1
 10
0.0
 20
0.0
 30
0.0
 40
0.008
 41
0.008
 75
     8
  0
VERTEX
  5
5B8
100
AcDbEntity
  8
MECHANICAL1
100
AcDbVertex
100
AcDb2dVertex
 10
7.9
 20
6.9
 30
0.0
  0
VERTEX
  5
5B9
100
AcDbEntity
  8
MECHANICAL1
100
AcDbVertex
100
AcDb2dVertex
 10
8.1
 20
6.9
 30
0.0
  0
SEQEND
  5
5BA
100
AcDbEntity
  8
0
  0
POLYLINE
  5
5BB
100
AcDbEntity
  8
MECHANICAL1
100
AcDb2dPolyline
 66
     1
 10
0.0
 20
0.0
 30
0.0
 70
     1
 40
0.004
 41
0.004
 75
     8
  0
VERTEX
  5
5BC
100
AcDbEntity
  8
MECHANICAL1
100
AcDbVertex
100
AcDb2dVertex
 10
7.898
 20
6.9
 30
0.0
 42
1.0
  0
VERTEX
  5
5BD
100
AcDbEntity
  8
MECHANICAL1
100
AcDbVertex
100
AcDb2dVertex
 10
7.902
 20
6.9
 30
0.0
 42
1.0
  0
SEQEND
  5
5BE
100
AcDbEntity
  8
0
  0
POLYLINE
  5
5BF
100
AcDbEntity
  8
MECHANICAL1
100
AcDb2dPolyline
 66
     1
 10
0.0
 20
0.0
 30
0.0
 70
     1
 40
0.004
 41
0.004
 75
     8
  0
VERTEX
  5
5C0
100
AcDbEntity
  8
MECHANICAL1
100
AcDbVertex
100
AcDb2dVertex
 10
8.098
 20
6.9
 30
0.0
 42
1.0
  0
VERTEX
  5
5C1
100
AcDbEntity
  8
MECHANICAL1
100
AcDbVertex
100
AcDb2dVertex
 10
8.102
 20
6.9
 30
0.0
 42
1.0
  0
SEQEND
  5
5C2
100
AcDbEntity
  8
0
  0
POLYLINE
  5
5C3
100
AcDbEntity
  8
MECHANICAL1
100
AcDb2dPolyline
 66
     1
 10
0.0
 20
0.0
 30
0.0
 40
0.008
 41
0.008
 75
     8
  0
VERTEX
  5
5C4
100
AcDbEntity
  8
MECHANICAL1
100
AcDbVertex
100
AcDb2dVertex
 10
8.0
 20
6.8
 30
0.0
  0
VERTEX
  5
5C5
100
AcDbEntity
  8
MECHANICAL1
100
AcDbVertex
100
AcDb2dVertex
 10
8.0
 20
7.2
 30
0.0
  0
SEQEND
  5
5C6
100
AcDbEntity
  8
0
  0
POLYLINE
  5
5C7
100
AcDbEntity
  8
MECHANICAL1
100
AcDb2dPolyline
 66
     1
 10
0.0
 20
0.0
 30
0.0
 70
     1
 40
0.004
 41
0.004
 75
     8
  0
VERTEX
  5
5C8
100
AcDbEntity
  8
MECHANICAL1
100
AcDbVertex
100
AcDb2dVertex
 10
7.998
 20
6.8
 30
0.0
 42
1.0
  0
VERTEX
  5
5C9
100
AcDbEntity
  8
MECHANICAL1
100
AcDbVertex
100
AcDb2dVertex
 10
8.002
 20
6.8
 30
0.0
 42
1.0
  0
SEQEND
  5
5CA
100
AcDbEntity
  8
0
  0
POLYLINE
  5
5CB
100
AcDbEntity
  8
MECHANICAL1
100
AcDb2dPolyline
 66
     1
 10
0.0
 20
0.0
 30
0.0
 70
     1
 40
0.004
 41
0.004
 75
     8
  0
VERTEX
  5
5CC
100
AcDbEntity
  8
MECHANICAL1
100
AcDbVertex
100
AcDb2dVertex
 10
7.998
 20
7.2
 30
0.0
 42
1.0
  0
VERTEX
  5
5CD
100
AcDbEntity
  8
MECHANICAL1
100
AcDbVertex
100
AcDb2dVertex
 10
8.002
 20
7.2
 30
0.0
 42
1.0
  0
SEQEND
  5
5CE
100
AcDbEntity
  8
0
  0
POLYLINE
  5
5CF
100
AcDbEntity
  8
MECHANICAL1
100
AcDb2dPolyline
 66
     1
 10
0.0
 20
0.0
 30
0.0
 40
0.008
 41
0.008
 75
     8
  0
VERTEX
  5
5D0
100
AcDbEntity
  8
MECHANICAL1
100
AcDbVertex
100
AcDb2dVertex
 10
7.9
 20
7.1
 30
0.0
  0
VERTEX
  5
5D1
100
AcDbEntity
  8
MECHANICAL1
100
AcDbVertex
100
AcDb2dVertex
 10
8.1
 20
7.1
 30
0.0
  0
SEQEND
  5
5D2
100
AcDbEntity
  8
0
  0
POLYLINE
  5
5D3
100
AcDbEntity
  8
MECHANICAL1
100
AcDb2dPolyline
 66
     1
 10
0.0
 20
0.0
 30
0.0
 70
     1
 40
0.004
 41
0.004
 75
     8
  0
VERTEX
  5
5D4
100
AcDbEntity
  8
MECHANICAL1
100
AcDbVertex
100
AcDb2dVertex
 10
7.898
 20
7.1
 30
0.0
 42
1.0
  0
VERTEX
  5
5D5
100
AcDbEntity
  8
MECHANICAL1
100
AcDbVertex
100
AcDb2dVertex
 10
7.902
 20
7.1
 30
0.0
 42
1.0
  0
SEQEND
  5
5D6
100
AcDbEntity
  8
0
  0
POLYLINE
  5
5D7
100
AcDbEntity
  8
MECHANICAL1
100
AcDb2dPolyline
 66
     1
 10
0.0
 20
0.0
 30
0.0
 70
     1
 40
0.004
 41
0.004
 75
     8
  0
VERTEX
  5
5D8
100
AcDbEntity
  8
MECHANICAL1
100
AcDbVertex
100
AcDb2dVertex
 10
8.098
 20
7.1
 30
0.0
 42
1.0
  0
VERTEX
  5
5D9
100
AcDbEntity
  8
MECHANICAL1
100
AcDbVertex
100
AcDb2dVertex
 10
8.102
 20
7.1
 30
0.0
 42
1.0
  0
SEQEND
  5
5DA
100
AcDbEntity
  8
0
  0
POLYLINE
  5
5DB
100
AcDbEntity
  8
TOPLAYER
100
AcDb2dPolyline
 66
     1
 10
0.0
 20
0.0
 30
0.0
 40
0.008
 41
0.008
 75
     8
  0
VERTEX
  5
5DC
100
AcDbEntity
  8
TOPLAYER
100
AcDbVertex
100
AcDb2dVertex
 10
6.138954
 20
4.011426
 30
0.0
 42
-0.134241
  0
VERTEX
  5
5DD
100
AcDbEntity
  8
TOPLAYER
100
AcDbVertex
100
AcDb2dVertex
 10
4.851856
 20
5.380984
 30
0.0
  0
SEQEND
  5
5DE
100
AcDbEntity
  8
0
  0
POLYLINE
  5
5DF
100
AcDbEntity
  8
TOPLAYER
100
AcDb2dPolyline
 66
     1
 10
0.0
 20
0.0
 30
0.0
 70
     1
 40
0.004
 41
0.004
 75
     8
  0
VERTEX
  5
5E0
100
AcDbEntity
  8
TOPLAYER
100
AcDbVertex
100
AcDb2dVertex
 10
6.136954
 20
4.011426
 30
0.0
 42
1.0
  0
VERTEX
  5
5E1
100
AcDbEntity
  8
TOPLAYER
100
AcDbVertex
100
AcDb2dVertex
 10
6.140954
 20
4.011426
 30
0.0
 42
1.0
  0
SEQEND
  5
5E2
100
AcDbEntity
  8
0
  0
POLYLINE
  5
5E3
100
AcDbEntity
  8
TOPLAYER
100
AcDb2dPolyline
 66
     1
 10
0.0
 20
0.0
 30
0.0
 70
     1
 40
0.004
 41
0.004
 75
     8
  0
VERTEX
  5
5E4
100
AcDbEntity
  8
TOPLAYER
100
AcDbVertex
100
AcDb2dVertex
 10
4.849856
 20
5.380984
 30
0.0
 42
1.0
  0
VERTEX
  5
5E5
100
AcDbEntity
  8
TOPLAYER
100
AcDbVertex
100
AcDb2dVertex
 10
4.853856
 20
5.380984
 30
0.0
 42
1.0
  0
SEQEND
  5
5E6
100
AcDbEntity
  8
0
  0
POLYLINE
  5
5E7
100
AcDbEntity
  8
TOPLAYER
100
AcDb2dPolyline
 66
     1
 10
0.0
 20
0.0
 30
0.0
 40
0.008
 41
0.008
 75
     8
  0
VERTEX
  5
5E8
100
AcDbEntity
  8
TOPLAYER
100
AcDbVertex
100
AcDb2dVertex
 10
4.850715
 20
8.61825
 30
0.0
 42
-0.065487
  0
VERTEX
  5
5E9
100
AcDbEntity
  8
TOPLAYER
100
AcDbVertex
100
AcDb2dVertex
 10
5.402187
 20
9.374216
 30
0.0
  0
SEQEND
  5
5EA
100
AcDbEntity
  8
0
  0
POLYLINE
  5
5EB
100
AcDbEntity
  8
TOPLAYER
100
AcDb2dPolyline
 66
     1
 10
0.0
 20
0.0
 30
0.0
 70
     1
 40
0.004
 41
0.004
 75
     8
  0
VERTEX
  5
5EC
100
AcDbEntity
  8
TOPLAYER
100
AcDbVertex
100
AcDb2dVertex
 10
4.848715
 20
8.61825
 30
0.0
 42
1.0
  0
VERTEX
  5
5ED
100
AcDbEntity
  8
TOPLAYER
100
AcDbVertex
100
AcDb2dVertex
 10
4.852715
 20
8.61825
 30
0.0
 42
1.0
  0
SEQEND
  5
5EE
100
AcDbEntity
  8
0
  0
POLYLINE
  5
5EF
100
AcDbEntity
  8
TOPLAYER
100
AcDb2dPolyline
 66
     1
 10
0.0
 20
0.0
 30
0.0
 70
     1
 40
0.004
 41
0.004
 75
     8
  0
VERTEX
  5
5F0
100
AcDbEntity
  8
TOPLAYER
100
AcDbVertex
100
AcDb2dVertex
 10
5.400187
 20
9.374216
 30
0.0
 42
1.0
  0
VERTEX
  5
5F1
100
AcDbEntity
  8
TOPLAYER
100
AcDbVertex
100
AcDb2dVertex
 10
5.404187
 20
9.374216
 30
0.0
 42
1.0
  0
SEQEND
  5
5F2
100
AcDbEntity
  8
0
  0
POLYLINE
  5
5F3
100
AcDbEntity
  8
TOPLAYER
100
AcDb2dPolyline
 66
     1
 10
0.0
 20
0.0
 30
0.0
 40
0.008
 41
0.008
 75
     8
  0
VERTEX
  5
5F4
100
AcDbEntity
  8
TOPLAYER
100
AcDbVertex
100
AcDb2dVertex
 10
7.057923
 20
4.011035
 30
0.0
 42
-0.739961
  0
VERTEX
  5
5F5
100
AcDbEntity
  8
TOPLAYER
100
AcDbVertex
100
AcDb2dVertex
 10
6.698353
 20
4.011035
 30
0.0
  0
SEQEND
  5
5F6
100
AcDbEntity
  8
0
  0
POLYLINE
  5
5F7
100
AcDbEntity
  8
TOPLAYER
100
AcDb2dPolyline
 66
     1
 10
0.0
 20
0.0
 30
0.0
 70
     1
 40
0.004
 41
0.004
 75
     8
  0
VERTEX
  5
5F8
100
AcDbEntity
  8
TOPLAYER
100
AcDbVertex
100
AcDb2dVertex
 10
7.055923
 20
4.011035
 30
0.0
 42
1.0
  0
VERTEX
  5
5F9
100
AcDbEntity
  8
TOPLAYER
100
AcDbVertex
100
AcDb2dVertex
 10
7.059923
 20
4.011035
 30
0.0
 42
1.0
  0
SEQEND
  5
5FA
100
AcDbEntity
  8
0
  0
POLYLINE
  5
5FB
100
AcDbEntity
  8
TOPLAYER
100
AcDb2dPolyline
 66
     1
 10
0.0
 20
0.0
 30
0.0
 70
     1
 40
0.004
 41
0.004
 75
     8
  0
VERTEX
  5
5FC
100
AcDbEntity
  8
TOPLAYER
100
AcDbVertex
100
AcDb2dVertex
 10
6.696353
 20
4.011035
 30
0.0
 42
1.0
  0
VERTEX
  5
5FD
100
AcDbEntity
  8
TOPLAYER
100
AcDbVertex
100
AcDb2dVertex
 10
6.700353
 20
4.011035
 30
0.0
 42
1.0
  0
SEQEND
  5
5FE
100
AcDbEntity
  8
0
  0
POLYLINE
  5
5FF
100
AcDbEntity
  8
TOPLAYER
100
AcDb2dPolyline
 66
     1
 10
0.0
 20
0.0
 30
0.0
 40
0.008
 41
0.008
 75
     8
  0
VERTEX
  5
600
100
AcDbEntity
  8
TOPLAYER
100
AcDbVertex
100
AcDb2dVertex
 10
9.773056
 20
9.680087
 30
0.0
 42
-0.038613
  0
VERTEX
  5
601
100
AcDbEntity
  8
TOPLAYER
100
AcDbVertex
100
AcDb2dVertex
 10
10.179445
 20
9.374395
 30
0.0
  0
SEQEND
  5
602
100
AcDbEntity
  8
0
  0
POLYLINE
  5
603
100
AcDbEntity
  8
TOPLAYER
100
AcDb2dPolyline
 66
     1
 10
0.0
 20
0.0
 30
0.0
 70
     1
 40
0.004
 41
0.004
 75
     8
  0
VERTEX
  5
604
100
AcDbEntity
  8
TOPLAYER
100
AcDbVertex
100
AcDb2dVertex
 10
9.771056
 20
9.680087
 30
0.0
 42
1.0
  0
VERTEX
  5
605
100
AcDbEntity
  8
TOPLAYER
100
AcDbVertex
100
AcDb2dVertex
 10
9.775056
 20
9.680087
 30
0.0
 42
1.0
  0
SEQEND
  5
606
100
AcDbEntity
  8
0
  0
POLYLINE
  5
607
100
AcDbEntity
  8
TOPLAYER
100
AcDb2dPolyline
 66
     1
 10
0.0
 20
0.0
 30
0.0
 70
     1
 40
0.004
 41
0.004
 75
     8
  0
VERTEX
  5
608
100
AcDbEntity
  8
TOPLAYER
100
AcDbVertex
100
AcDb2dVertex
 10
10.177445
 20
9.374395
 30
0.0
 42
1.0
  0
VERTEX
  5
609
100
AcDbEntity
  8
TOPLAYER
100
AcDbVertex
100
AcDb2dVertex
 10
10.181445
 20
9.374395
 30
0.0
 42
1.0
  0
SEQEND
  5
60A
100
AcDbEntity
  8
0
  0
POLYLINE
  5
60B
100
AcDbEntity
  8
TOPLAYER
100
AcDb2dPolyline
 66
     1
 10
0.0
 20
0.0
 30
0.0
 40
0.008
 41
0.008
 75
     8
  0
VERTEX
  5
60C
100
AcDbEntity
  8
TOPLAYER
100
AcDbVertex
100
AcDb2dVertex
 10
5.820555
 20
9.374395
 30
0.0
 42
-0.038613
  0
VERTEX
  5
60D
100
AcDbEntity
  8
TOPLAYER
100
AcDbVertex
100
AcDb2dVertex
 10
6.226944
 20
9.680087
 30
0.0
  0
SEQEND
  5
60E
100
AcDbEntity
  8
0
  0
POLYLINE
  5
60F
100
AcDbEntity
  8
TOPLAYER
100
AcDb2dPolyline
 66
     1
 10
0.0
 20
0.0
 30
0.0
 70
     1
 40
0.004
 41
0.004
 75
     8
  0
VERTEX
  5
610
100
AcDbEntity
  8
TOPLAYER
100
AcDbVertex
100
AcDb2dVertex
 10
5.818555
 20
9.374395
 30
0.0
 42
1.0
  0
VERTEX
  5
611
100
AcDbEntity
  8
TOPLAYER
100
AcDbVertex
100
AcDb2dVertex
 10
5.822555
 20
9.374395
 30
0.0
 42
1.0
  0
SEQEND
  5
612
100
AcDbEntity
  8
0
  0
POLYLINE
  5
613
100
AcDbEntity
  8
TOPLAYER
100
AcDb2dPolyline
 66
     1
 10
0.0
 20
0.0
 30
0.0
 70
     1
 40
0.004
 41
0.004
 75
     8
  0
VERTEX
  5
614
100
AcDbEntity
  8
TOPLAYER
100
AcDbVertex
100
AcDb2dVertex
 10
6.224944
 20
9.680087
 30
0.0
 42
1.0
  0
VERTEX
  5
615
100
AcDbEntity
  8
TOPLAYER
100
AcDbVertex
100
AcDb2dVertex
 10
6.228944
 20
9.680087
 30
0.0
 42
1.0
  0
SEQEND
  5
616
100
AcDbEntity
  8
0
  0
POLYLINE
  5
617
100
AcDbEntity
  8
TOPLAYER
100
AcDb2dPolyline
 66
     1
 10
0.0
 20
0.0
 30
0.0
 40
0.008
 41
0.008
 75
     8
  0
VERTEX
  5
618
100
AcDbEntity
  8
TOPLAYER
100
AcDbVertex
100
AcDb2dVertex
 10
11.148144
 20
5.380984
 30
0.0
 42
-0.134241
  0
VERTEX
  5
619
100
AcDbEntity
  8
TOPLAYER
100
AcDbVertex
100
AcDb2dVertex
 10
9.861046
 20
4.011426
 30
0.0
  0
SEQEND
  5
61A
100
AcDbEntity
  8
0
  0
POLYLINE
  5
61B
100
AcDbEntity
  8
TOPLAYER
100
AcDb2dPolyline
 66
     1
 10
0.0
 20
0.0
 30
0.0
 70
     1
 40
0.004
 41
0.004
 75
     8
  0
VERTEX
  5
61C
100
AcDbEntity
  8
TOPLAYER
100
AcDbVertex
100
AcDb2dVertex
 10
11.146144
 20
5.380984
 30
0.0
 42
1.0
  0
VERTEX
  5
61D
100
AcDbEntity
  8
TOPLAYER
100
AcDbVertex
100
AcDb2dVertex
 10
11.150144
 20
5.380984
 30
0.0
 42
1.0
  0
SEQEND
  5
61E
100
AcDbEntity
  8
0
  0
POLYLINE
  5
61F
100
AcDbEntity
  8
TOPLAYER
100
AcDb2dPolyline
 66
     1
 10
0.0
 20
0.0
 30
0.0
 70
     1
 40
0.004
 41
0.004
 75
     8
  0
VERTEX
  5
620
100
AcDbEntity
  8
TOPLAYER
100
AcDbVertex
100
AcDb2dVertex
 10
9.859046
 20
4.011426
 30
0.0
 42
1.0
  0
VERTEX
  5
621
100
AcDbEntity
  8
TOPLAYER
100
AcDbVertex
100
AcDb2dVertex
 10
9.863046
 20
4.011426
 30
0.0
 42
1.0
  0
SEQEND
  5
622
100
AcDbEntity
  8
0
  0
POLYLINE
  5
623
100
AcDbEntity
  8
TOPLAYER
100
AcDb2dPolyline
 66
     1
 10
0.0
 20
0.0
 30
0.0
 70
     1
 40
0.008
 41
0.008
 75
     8
  0
VERTEX
  5
624
100
AcDbEntity
  8
TOPLAYER
100
AcDbVertex
100
AcDb2dVertex
 10
4.897137
 20
5.734
 30
0.0
 42
1.0
  0
VERTEX
  5
625
100
AcDbEntity
  8
TOPLAYER
100
AcDbVertex
100
AcDb2dVertex
 10
4.725137
 20
5.734
 30
0.0
 42
1.0
  0
SEQEND
  5
626
100
AcDbEntity
  8
0
  0
POLYLINE
  5
627
100
AcDbEntity
  8
TOPLAYER
100
AcDb2dPolyline
 66
     1
 10
0.0
 20
0.0
 30
0.0
 70
     1
 40
0.004
 41
0.004
 75
     8
  0
VERTEX
  5
628
100
AcDbEntity
  8
TOPLAYER
100
AcDbVertex
100
AcDb2dVertex
 10
4.895137
 20
5.734
 30
0.0
 42
1.0
  0
VERTEX
  5
629
100
AcDbEntity
  8
TOPLAYER
100
AcDbVertex
100
AcDb2dVertex
 10
4.899137
 20
5.734
 30
0.0
 42
1.0
  0
SEQEND
  5
62A
100
AcDbEntity
  8
0
  0
POLYLINE
  5
62B
100
AcDbEntity
  8
TOPLAYER
100
AcDb2dPolyline
 66
     1
 10
0.0
 20
0.0
 30
0.0
 70
     1
 40
0.004
 41
0.004
 75
     8
  0
VERTEX
  5
62C
100
AcDbEntity
  8
TOPLAYER
100
AcDbVertex
100
AcDb2dVertex
 10
4.723137
 20
5.734
 30
0.0
 42
1.0
  0
VERTEX
  5
62D
100
AcDbEntity
  8
TOPLAYER
100
AcDbVertex
100
AcDb2dVertex
 10
4.727137
 20
5.734
 30
0.0
 42
1.0
  0
SEQEND
  5
62E
100
AcDbEntity
  8
0
  0
POLYLINE
  5
62F
100
AcDbEntity
  8
TOPLAYER
100
AcDb2dPolyline
 66
     1
 10
0.0
 20
0.0
 30
0.0
 40
0.008
 41
0.008
 75
     8
  0
VERTEX
  5
630
100
AcDbEntity
  8
TOPLAYER
100
AcDbVertex
100
AcDb2dVertex
 10
4.754455
 20
5.550762
 30
0.0
 42
-0.796533
  0
VERTEX
  5
631
100
AcDbEntity
  8
TOPLAYER
100
AcDbVertex
100
AcDb2dVertex
 10
4.754455
 20
5.917238
 30
0.0
  0
SEQEND
  5
632
100
AcDbEntity
  8
0
  0
POLYLINE
  5
633
100
AcDbEntity
  8
TOPLAYER
100
AcDb2dPolyline
 66
     1
 10
0.0
 20
0.0
 30
0.0
 70
     1
 40
0.004
 41
0.004
 75
     8
  0
VERTEX
  5
634
100
AcDbEntity
  8
TOPLAYER
100
AcDbVertex
100
AcDb2dVertex
 10
4.752455
 20
5.550762
 30
0.0
 42
1.0
  0
VERTEX
  5
635
100
AcDbEntity
  8
TOPLAYER
100
AcDbVertex
100
AcDb2dVertex
 10
4.756455
 20
5.550762
 30
0.0
 42
1.0
  0
SEQEND
  5
636
100
AcDbEntity
  8
0
  0
POLYLINE
  5
637
100
AcDbEntity
  8
TOPLAYER
100
AcDb2dPolyline
 66
     1
 10
0.0
 20
0.0
 30
0.0
 70
     1
 40
0.004
 41
0.004
 75
     8
  0
VERTEX
  5
638
100
AcDbEntity
  8
TOPLAYER
100
AcDbVertex
100
AcDb2dVertex
 10
4.752455
 20
5.917238
 30
0.0
 42
1.0
  0
VERTEX
  5
639
100
AcDbEntity
  8
TOPLAYER
100
AcDbVertex
100
AcDb2dVertex
 10
4.756455
 20
5.917238
 30
0.0
 42
1.0
  0
SEQEND
  5
63A
100
AcDbEntity
  8
0
  0
POLYLINE
  5
63B
100
AcDbEntity
  8
TOPLAYER
100
AcDb2dPolyline
 66
     1
 10
0.0
 20
0.0
 30
0.0
 70
     1
 40
0.008
 41
0.008
 75
     8
  0
VERTEX
  5
63C
100
AcDbEntity
  8
TOPLAYER
100
AcDbVertex
100
AcDb2dVertex
 10
4.897137
 20
8.266
 30
0.0
 42
1.0
  0
VERTEX
  5
63D
100
AcDbEntity
  8
TOPLAYER
100
AcDbVertex
100
AcDb2dVertex
 10
4.725137
 20
8.266
 30
0.0
 42
1.0
  0
SEQEND
  5
63E
100
AcDbEntity
  8
0
  0
POLYLINE
  5
63F
100
AcDbEntity
  8
TOPLAYER
100
AcDb2dPolyline
 66
     1
 10
0.0
 20
0.0
 30
0.0
 70
     1
 40
0.004
 41
0.004
 75
     8
  0
VERTEX
  5
640
100
AcDbEntity
  8
TOPLAYER
100
AcDbVertex
100
AcDb2dVertex
 10
4.895137
 20
8.266
 30
0.0
 42
1.0
  0
VERTEX
  5
641
100
AcDbEntity
  8
TOPLAYER
100
AcDbVertex
100
AcDb2dVertex
 10
4.899137
 20
8.266
 30
0.0
 42
1.0
  0
SEQEND
  5
642
100
AcDbEntity
  8
0
  0
POLYLINE
  5
643
100
AcDbEntity
  8
TOPLAYER
100
AcDb2dPolyline
 66
     1
 10
0.0
 20
0.0
 30
0.0
 70
     1
 40
0.004
 41
0.004
 75
     8
  0
VERTEX
  5
644
100
AcDbEntity
  8
TOPLAYER
100
AcDbVertex
100
AcDb2dVertex
 10
4.723137
 20
8.266
 30
0.0
 42
1.0
  0
VERTEX
  5
645
100
AcDbEntity
  8
TOPLAYER
100
AcDbVertex
100
AcDb2dVertex
 10
4.727137
 20
8.266
 30
0.0
 42
1.0
  0
SEQEND
  5
646
100
AcDbEntity
  8
0
  0
POLYLINE
  5
647
100
AcDbEntity
  8
TOPLAYER
100
AcDb2dPolyline
 66
     1
 10
0.0
 20
0.0
 30
0.0
 40
0.008
 41
0.008
 75
     8
  0
VERTEX
  5
648
100
AcDbEntity
  8
TOPLAYER
100
AcDbVertex
100
AcDb2dVertex
 10
4.754455
 20
8.082762
 30
0.0
 42
-0.796533
  0
VERTEX
  5
649
100
AcDbEntity
  8
TOPLAYER
100
AcDbVertex
100
AcDb2dVertex
 10
4.754455
 20
8.449238
 30
0.0
  0
SEQEND
  5
64A
100
AcDbEntity
  8
0
  0
POLYLINE
  5
64B
100
AcDbEntity
  8
TOPLAYER
100
AcDb2dPolyline
 66
     1
 10
0.0
 20
0.0
 30
0.0
 70
     1
 40
0.004
 41
0.004
 75
     8
  0
VERTEX
  5
64C
100
AcDbEntity
  8
TOPLAYER
100
AcDbVertex
100
AcDb2dVertex
 10
4.752455
 20
8.082762
 30
0.0
 42
1.0
  0
VERTEX
  5
64D
100
AcDbEntity
  8
TOPLAYER
100
AcDbVertex
100
AcDb2dVertex
 10
4.756455
 20
8.082762
 30
0.0
 42
1.0
  0
SEQEND
  5
64E
100
AcDbEntity
  8
0
  0
POLYLINE
  5
64F
100
AcDbEntity
  8
TOPLAYER
100
AcDb2dPolyline
 66
     1
 10
0.0
 20
0.0
 30
0.0
 70
     1
 40
0.004
 41
0.004
 75
     8
  0
VERTEX
  5
650
100
AcDbEntity
  8
TOPLAYER
100
AcDbVertex
100
AcDb2dVertex
 10
4.752455
 20
8.449238
 30
0.0
 42
1.0
  0
VERTEX
  5
651
100
AcDbEntity
  8
TOPLAYER
100
AcDbVertex
100
AcDb2dVertex
 10
4.756455
 20
8.449238
 30
0.0
 42
1.0
  0
SEQEND
  5
652
100
AcDbEntity
  8
0
  0
POLYLINE
  5
653
100
AcDbEntity
  8
TOPLAYER
100
AcDb2dPolyline
 66
     1
 10
0.0
 20
0.0
 30
0.0
 40
0.008
 41
0.008
 75
     8
  0
VERTEX
  5
654
100
AcDbEntity
  8
TOPLAYER
100
AcDbVertex
100
AcDb2dVertex
 10
4.753955
 20
8.082762
 30
0.0
 42
-0.349592
  0
VERTEX
  5
655
100
AcDbEntity
  8
TOPLAYER
100
AcDbVertex
100
AcDb2dVertex
 10
4.851
 20
7.960928
 30
0.0
  0
SEQEND
  5
656
100
AcDbEntity
  8
0
  0
POLYLINE
  5
657
100
AcDbEntity
  8
TOPLAYER
100
AcDb2dPolyline
 66
     1
 10
0.0
 20
0.0
 30
0.0
 70
     1
 40
0.004
 41
0.004
 75
     8
  0
VERTEX
  5
658
100
AcDbEntity
  8
TOPLAYER
100
AcDbVertex
100
AcDb2dVertex
 10
4.751955
 20
8.082762
 30
0.0
 42
1.0
  0
VERTEX
  5
659
100
AcDbEntity
  8
TOPLAYER
100
AcDbVertex
100
AcDb2dVertex
 10
4.755955
 20
8.082762
 30
0.0
 42
1.0
  0
SEQEND
  5
65A
100
AcDbEntity
  8
0
  0
POLYLINE
  5
65B
100
AcDbEntity
  8
TOPLAYER
100
AcDb2dPolyline
 66
     1
 10
0.0
 20
0.0
 30
0.0
 70
     1
 40
0.004
 41
0.004
 75
     8
  0
VERTEX
  5
65C
100
AcDbEntity
  8
TOPLAYER
100
AcDbVertex
100
AcDb2dVertex
 10
4.849
 20
7.960928
 30
0.0
 42
1.0
  0
VERTEX
  5
65D
100
AcDbEntity
  8
TOPLAYER
100
AcDbVertex
100
AcDb2dVertex
 10
4.853
 20
7.960928
 30
0.0
 42
1.0
  0
SEQEND
  5
65E
100
AcDbEntity
  8
0
  0
POLYLINE
  5
65F
100
AcDbEntity
  8
TOPLAYER
100
AcDb2dPolyline
 66
     1
 10
0.0
 20
0.0
 30
0.0
 40
0.008
 41
0.008
 75
     8
  0
VERTEX
  5
660
100
AcDbEntity
  8
TOPLAYER
100
AcDbVertex
100
AcDb2dVertex
 10
4.851
 20
8.571073
 30
0.0
 42
-0.349592
  0
VERTEX
  5
661
100
AcDbEntity
  8
TOPLAYER
100
AcDbVertex
100
AcDb2dVertex
 10
4.753955
 20
8.449239
 30
0.0
  0
SEQEND
  5
662
100
AcDbEntity
  8
0
  0
POLYLINE
  5
663
100
AcDbEntity
  8
TOPLAYER
100
AcDb2dPolyline
 66
     1
 10
0.0
 20
0.0
 30
0.0
 70
     1
 40
0.004
 41
0.004
 75
     8
  0
VERTEX
  5
664
100
AcDbEntity
  8
TOPLAYER
100
AcDbVertex
100
AcDb2dVertex
 10
4.849
 20
8.571073
 30
0.0
 42
1.0
  0
VERTEX
  5
665
100
AcDbEntity
  8
TOPLAYER
100
AcDbVertex
100
AcDb2dVertex
 10
4.853
 20
8.571073
 30
0.0
 42
1.0
  0
SEQEND
  5
666
100
AcDbEntity
  8
0
  0
POLYLINE
  5
667
100
AcDbEntity
  8
TOPLAYER
100
AcDb2dPolyline
 66
     1
 10
0.0
 20
0.0
 30
0.0
 70
     1
 40
0.004
 41
0.004
 75
     8
  0
VERTEX
  5
668
100
AcDbEntity
  8
TOPLAYER
100
AcDbVertex
100
AcDb2dVertex
 10
4.751955
 20
8.449239
 30
0.0
 42
1.0
  0
VERTEX
  5
669
100
AcDbEntity
  8
TOPLAYER
100
AcDbVertex
100
AcDb2dVertex
 10
4.755955
 20
8.449239
 30
0.0
 42
1.0
  0
SEQEND
  5
66A
100
AcDbEntity
  8
0
  0
POLYLINE
  5
66B
100
AcDbEntity
  8
TOPLAYER
100
AcDb2dPolyline
 66
     1
 10
0.0
 20
0.0
 30
0.0
 70
     1
 40
0.008
 41
0.008
 75
     8
  0
VERTEX
  5
66C
100
AcDbEntity
  8
TOPLAYER
100
AcDbVertex
100
AcDb2dVertex
 10
6.964137
 20
9.55
 30
0.0
 42
1.0
  0
VERTEX
  5
66D
100
AcDbEntity
  8
TOPLAYER
100
AcDbVertex
100
AcDb2dVertex
 10
6.792137
 20
9.55
 30
0.0
 42
1.0
  0
SEQEND
  5
66E
100
AcDbEntity
  8
0
  0
POLYLINE
  5
66F
100
AcDbEntity
  8
TOPLAYER
100
AcDb2dPolyline
 66
     1
 10
0.0
 20
0.0
 30
0.0
 70
     1
 40
0.004
 41
0.004
 75
     8
  0
VERTEX
  5
670
100
AcDbEntity
  8
TOPLAYER
100
AcDbVertex
100
AcDb2dVertex
 10
6.962137
 20
9.55
 30
0.0
 42
1.0
  0
VERTEX
  5
671
100
AcDbEntity
  8
TOPLAYER
100
AcDbVertex
100
AcDb2dVertex
 10
6.966137
 20
9.55
 30
0.0
 42
1.0
  0
SEQEND
  5
672
100
AcDbEntity
  8
0
  0
POLYLINE
  5
673
100
AcDbEntity
  8
TOPLAYER
100
AcDb2dPolyline
 66
     1
 10
0.0
 20
0.0
 30
0.0
 70
     1
 40
0.004
 41
0.004
 75
     8
  0
VERTEX
  5
674
100
AcDbEntity
  8
TOPLAYER
100
AcDbVertex
100
AcDb2dVertex
 10
6.790137
 20
9.55
 30
0.0
 42
1.0
  0
VERTEX
  5
675
100
AcDbEntity
  8
TOPLAYER
100
AcDbVertex
100
AcDb2dVertex
 10
6.794137
 20
9.55
 30
0.0
 42
1.0
  0
SEQEND
  5
676
100
AcDbEntity
  8
0
  0
POLYLINE
  5
677
100
AcDbEntity
  8
TOPLAYER
100
AcDb2dPolyline
 66
     1
 10
0.0
 20
0.0
 30
0.0
 70
     1
 40
0.008
 41
0.008
 75
     8
  0
VERTEX
  5
678
100
AcDbEntity
  8
TOPLAYER
100
AcDbVertex
100
AcDb2dVertex
 10
9.208136
 20
9.55
 30
0.0
 42
1.0
  0
VERTEX
  5
679
100
AcDbEntity
  8
TOPLAYER
100
AcDbVertex
100
AcDb2dVertex
 10
9.036136
 20
9.55
 30
0.0
 42
1.0
  0
SEQEND
  5
67A
100
AcDbEntity
  8
0
  0
POLYLINE
  5
67B
100
AcDbEntity
  8
TOPLAYER
100
AcDb2dPolyline
 66
     1
 10
0.0
 20
0.0
 30
0.0
 70
     1
 40
0.004
 41
0.004
 75
     8
  0
VERTEX
  5
67C
100
AcDbEntity
  8
TOPLAYER
100
AcDbVertex
100
AcDb2dVertex
 10
9.206136
 20
9.55
 30
0.0
 42
1.0
  0
VERTEX
  5
67D
100
AcDbEntity
  8
TOPLAYER
100
AcDbVertex
100
AcDb2dVertex
 10
9.210136
 20
9.55
 30
0.0
 42
1.0
  0
SEQEND
  5
67E
100
AcDbEntity
  8
0
  0
POLYLINE
  5
67F
100
AcDbEntity
  8
TOPLAYER
100
AcDb2dPolyline
 66
     1
 10
0.0
 20
0.0
 30
0.0
 70
     1
 40
0.004
 41
0.004
 75
     8
  0
VERTEX
  5
680
100
AcDbEntity
  8
TOPLAYER
100
AcDbVertex
100
AcDb2dVertex
 10
9.034136
 20
9.55
 30
0.0
 42
1.0
  0
VERTEX
  5
681
100
AcDbEntity
  8
TOPLAYER
100
AcDbVertex
100
AcDb2dVertex
 10
9.038136
 20
9.55
 30
0.0
 42
1.0
  0
SEQEND
  5
682
100
AcDbEntity
  8
0
  0
POLYLINE
  5
683
100
AcDbEntity
  8
TOPLAYER
100
AcDb2dPolyline
 66
     1
 10
0.0
 20
0.0
 30
0.0
 70
     1
 40
0.008
 41
0.008
 75
     8
  0
VERTEX
  5
684
100
AcDbEntity
  8
TOPLAYER
100
AcDbVertex
100
AcDb2dVertex
 10
9.208136
 20
4.066
 30
0.0
 42
1.0
  0
VERTEX
  5
685
100
AcDbEntity
  8
TOPLAYER
100
AcDbVertex
100
AcDb2dVertex
 10
9.036136
 20
4.066
 30
0.0
 42
1.0
  0
SEQEND
  5
686
100
AcDbEntity
  8
0
  0
POLYLINE
  5
687
100
AcDbEntity
  8
TOPLAYER
100
AcDb2dPolyline
 66
     1
 10
0.0
 20
0.0
 30
0.0
 70
     1
 40
0.004
 41
0.004
 75
     8
  0
VERTEX
  5
688
100
AcDbEntity
  8
TOPLAYER
100
AcDbVertex
100
AcDb2dVertex
 10
9.206136
 20
4.066
 30
0.0
 42
1.0
  0
VERTEX
  5
689
100
AcDbEntity
  8
TOPLAYER
100
AcDbVertex
100
AcDb2dVertex
 10
9.210136
 20
4.066
 30
0.0
 42
1.0
  0
SEQEND
  5
68A
100
AcDbEntity
  8
0
  0
POLYLINE
  5
68B
100
AcDbEntity
  8
TOPLAYER
100
AcDb2dPolyline
 66
     1
 10
0.0
 20
0.0
 30
0.0
 70
     1
 40
0.004
 41
0.004
 75
     8
  0
VERTEX
  5
68C
100
AcDbEntity
  8
TOPLAYER
100
AcDbVertex
100
AcDb2dVertex
 10
9.034136
 20
4.066
 30
0.0
 42
1.0
  0
VERTEX
  5
68D
100
AcDbEntity
  8
TOPLAYER
100
AcDbVertex
100
AcDb2dVertex
 10
9.038136
 20
4.066
 30
0.0
 42
1.0
  0
SEQEND
  5
68E
100
AcDbEntity
  8
0
  0
POLYLINE
  5
68F
100
AcDbEntity
  8
TOPLAYER
100
AcDb2dPolyline
 66
     1
 10
0.0
 20
0.0
 30
0.0
 40
0.008
 41
0.008
 75
     8
  0
VERTEX
  5
690
100
AcDbEntity
  8
TOPLAYER
100
AcDbVertex
100
AcDb2dVertex
 10
4.8515
 20
6.039072
 30
0.0
 42
-0.349592
  0
VERTEX
  5
691
100
AcDbEntity
  8
TOPLAYER
100
AcDbVertex
100
AcDb2dVertex
 10
4.754455
 20
5.917238
 30
0.0
  0
SEQEND
  5
692
100
AcDbEntity
  8
0
  0
POLYLINE
  5
693
100
AcDbEntity
  8
TOPLAYER
100
AcDb2dPolyline
 66
     1
 10
0.0
 20
0.0
 30
0.0
 70
     1
 40
0.004
 41
0.004
 75
     8
  0
VERTEX
  5
694
100
AcDbEntity
  8
TOPLAYER
100
AcDbVertex
100
AcDb2dVertex
 10
4.8495
 20
6.039072
 30
0.0
 42
1.0
  0
VERTEX
  5
695
100
AcDbEntity
  8
TOPLAYER
100
AcDbVertex
100
AcDb2dVertex
 10
4.8535
 20
6.039072
 30
0.0
 42
1.0
  0
SEQEND
  5
696
100
AcDbEntity
  8
0
  0
POLYLINE
  5
697
100
AcDbEntity
  8
TOPLAYER
100
AcDb2dPolyline
 66
     1
 10
0.0
 20
0.0
 30
0.0
 70
     1
 40
0.004
 41
0.004
 75
     8
  0
VERTEX
  5
698
100
AcDbEntity
  8
TOPLAYER
100
AcDbVertex
100
AcDb2dVertex
 10
4.752455
 20
5.917238
 30
0.0
 42
1.0
  0
VERTEX
  5
699
100
AcDbEntity
  8
TOPLAYER
100
AcDbVertex
100
AcDb2dVertex
 10
4.756455
 20
5.917238
 30
0.0
 42
1.0
  0
SEQEND
  5
69A
100
AcDbEntity
  8
0
  0
POLYLINE
  5
69B
100
AcDbEntity
  8
TOPLAYER
100
AcDb2dPolyline
 66
     1
 10
0.0
 20
0.0
 30
0.0
 40
0.008
 41
0.008
 75
     8
  0
VERTEX
  5
69C
100
AcDbEntity
  8
TOPLAYER
100
AcDbVertex
100
AcDb2dVertex
 10
4.754455
 20
5.550762
 30
0.0
 42
-0.349592
  0
VERTEX
  5
69D
100
AcDbEntity
  8
TOPLAYER
100
AcDbVertex
100
AcDb2dVertex
 10
4.8515
 20
5.428928
 30
0.0
  0
SEQEND
  5
69E
100
AcDbEntity
  8
0
  0
POLYLINE
  5
69F
100
AcDbEntity
  8
TOPLAYER
100
AcDb2dPolyline
 66
     1
 10
0.0
 20
0.0
 30
0.0
 70
     1
 40
0.004
 41
0.004
 75
     8
  0
VERTEX
  5
6A0
100
AcDbEntity
  8
TOPLAYER
100
AcDbVertex
100
AcDb2dVertex
 10
4.752455
 20
5.550762
 30
0.0
 42
1.0
  0
VERTEX
  5
6A1
100
AcDbEntity
  8
TOPLAYER
100
AcDbVertex
100
AcDb2dVertex
 10
4.756455
 20
5.550762
 30
0.0
 42
1.0
  0
SEQEND
  5
6A2
100
AcDbEntity
  8
0
  0
POLYLINE
  5
6A3
100
AcDbEntity
  8
TOPLAYER
100
AcDb2dPolyline
 66
     1
 10
0.0
 20
0.0
 30
0.0
 70
     1
 40
0.004
 41
0.004
 75
     8
  0
VERTEX
  5
6A4
100
AcDbEntity
  8
TOPLAYER
100
AcDbVertex
100
AcDb2dVertex
 10
4.8495
 20
5.428928
 30
0.0
 42
1.0
  0
VERTEX
  5
6A5
100
AcDbEntity
  8
TOPLAYER
100
AcDbVertex
100
AcDb2dVertex
 10
4.8535
 20
5.428928
 30
0.0
 42
1.0
  0
SEQEND
  5
6A6
100
AcDbEntity
  8
0
  0
POLYLINE
  5
6A7
100
AcDbEntity
  8
TOPLAYER
100
AcDb2dPolyline
 66
     1
 10
0.0
 20
0.0
 30
0.0
 70
     1
 40
0.008
 41
0.008
 75
     8
  0
VERTEX
  5
6A8
100
AcDbEntity
  8
TOPLAYER
100
AcDbVertex
100
AcDb2dVertex
 10
11.269863
 20
5.734
 30
0.0
 42
1.0
  0
VERTEX
  5
6A9
100
AcDbEntity
  8
TOPLAYER
100
AcDbVertex
100
AcDb2dVertex
 10
11.097863
 20
5.734
 30
0.0
 42
1.0
  0
SEQEND
  5
6AA
100
AcDbEntity
  8
0
  0
POLYLINE
  5
6AB
100
AcDbEntity
  8
TOPLAYER
100
AcDb2dPolyline
 66
     1
 10
0.0
 20
0.0
 30
0.0
 70
     1
 40
0.004
 41
0.004
 75
     8
  0
VERTEX
  5
6AC
100
AcDbEntity
  8
TOPLAYER
100
AcDbVertex
100
AcDb2dVertex
 10
11.267863
 20
5.734
 30
0.0
 42
1.0
  0
VERTEX
  5
6AD
100
AcDbEntity
  8
TOPLAYER
100
AcDbVertex
100
AcDb2dVertex
 10
11.271863
 20
5.734
 30
0.0
 42
1.0
  0
SEQEND
  5
6AE
100
AcDbEntity
  8
0
  0
POLYLINE
  5
6AF
100
AcDbEntity
  8
TOPLAYER
100
AcDb2dPolyline
 66
     1
 10
0.0
 20
0.0
 30
0.0
 70
     1
 40
0.004
 41
0.004
 75
     8
  0
VERTEX
  5
6B0
100
AcDbEntity
  8
TOPLAYER
100
AcDbVertex
100
AcDb2dVertex
 10
11.095863
 20
5.734
 30
0.0
 42
1.0
  0
VERTEX
  5
6B1
100
AcDbEntity
  8
TOPLAYER
100
AcDbVertex
100
AcDb2dVertex
 10
11.099863
 20
5.734
 30
0.0
 42
1.0
  0
SEQEND
  5
6B2
100
AcDbEntity
  8
0
  0
POLYLINE
  5
6B3
100
AcDbEntity
  8
TOPLAYER
100
AcDb2dPolyline
 66
     1
 10
0.0
 20
0.0
 30
0.0
 40
0.008
 41
0.008
 75
     8
  0
VERTEX
  5
6B4
100
AcDbEntity
  8
TOPLAYER
100
AcDbVertex
100
AcDb2dVertex
 10
11.245545
 20
5.917238
 30
0.0
 42
-0.796533
  0
VERTEX
  5
6B5
100
AcDbEntity
  8
TOPLAYER
100
AcDbVertex
100
AcDb2dVertex
 10
11.245545
 20
5.550762
 30
0.0
  0
SEQEND
  5
6B6
100
AcDbEntity
  8
0
  0
POLYLINE
  5
6B7
100
AcDbEntity
  8
TOPLAYER
100
AcDb2dPolyline
 66
     1
 10
0.0
 20
0.0
 30
0.0
 70
     1
 40
0.004
 41
0.004
 75
     8
  0
VERTEX
  5
6B8
100
AcDbEntity
  8
TOPLAYER
100
AcDbVertex
100
AcDb2dVertex
 10
11.243545
 20
5.917238
 30
0.0
 42
1.0
  0
VERTEX
  5
6B9
100
AcDbEntity
  8
TOPLAYER
100
AcDbVertex
100
AcDb2dVertex
 10
11.247545
 20
5.917238
 30
0.0
 42
1.0
  0
SEQEND
  5
6BA
100
AcDbEntity
  8
0
  0
POLYLINE
  5
6BB
100
AcDbEntity
  8
TOPLAYER
100
AcDb2dPolyline
 66
     1
 10
0.0
 20
0.0
 30
0.0
 70
     1
 40
0.004
 41
0.004
 75
     8
  0
VERTEX
  5
6BC
100
AcDbEntity
  8
TOPLAYER
100
AcDbVertex
100
AcDb2dVertex
 10
11.243545
 20
5.550762
 30
0.0
 42
1.0
  0
VERTEX
  5
6BD
100
AcDbEntity
  8
TOPLAYER
100
AcDbVertex
100
AcDb2dVertex
 10
11.247545
 20
5.550762
 30
0.0
 42
1.0
  0
SEQEND
  5
6BE
100
AcDbEntity
  8
0
  0
POLYLINE
  5
6BF
100
AcDbEntity
  8
TOPLAYER
100
AcDb2dPolyline
 66
     1
 10
0.0
 20
0.0
 30
0.0
 70
     1
 40
0.008
 41
0.008
 75
     8
  0
VERTEX
  5
6C0
100
AcDbEntity
  8
TOPLAYER
100
AcDbVertex
100
AcDb2dVertex
 10
11.269863
 20
8.266
 30
0.0
 42
1.0
  0
VERTEX
  5
6C1
100
AcDbEntity
  8
TOPLAYER
100
AcDbVertex
100
AcDb2dVertex
 10
11.097863
 20
8.266
 30
0.0
 42
1.0
  0
SEQEND
  5
6C2
100
AcDbEntity
  8
0
  0
POLYLINE
  5
6C3
100
AcDbEntity
  8
TOPLAYER
100
AcDb2dPolyline
 66
     1
 10
0.0
 20
0.0
 30
0.0
 70
     1
 40
0.004
 41
0.004
 75
     8
  0
VERTEX
  5
6C4
100
AcDbEntity
  8
TOPLAYER
100
AcDbVertex
100
AcDb2dVertex
 10
11.267863
 20
8.266
 30
0.0
 42
1.0
  0
VERTEX
  5
6C5
100
AcDbEntity
  8
TOPLAYER
100
AcDbVertex
100
AcDb2dVertex
 10
11.271863
 20
8.266
 30
0.0
 42
1.0
  0
SEQEND
  5
6C6
100
AcDbEntity
  8
0
  0
POLYLINE
  5
6C7
100
AcDbEntity
  8
TOPLAYER
100
AcDb2dPolyline
 66
     1
 10
0.0
 20
0.0
 30
0.0
 70
     1
 40
0.004
 41
0.004
 75
     8
  0
VERTEX
  5
6C8
100
AcDbEntity
  8
TOPLAYER
100
AcDbVertex
100
AcDb2dVertex
 10
11.095863
 20
8.266
 30
0.0
 42
1.0
  0
VERTEX
  5
6C9
100
AcDbEntity
  8
TOPLAYER
100
AcDbVertex
100
AcDb2dVertex
 10
11.099863
 20
8.266
 30
0.0
 42
1.0
  0
SEQEND
  5
6CA
100
AcDbEntity
  8
0
  0
POLYLINE
  5
6CB
100
AcDbEntity
  8
TOPLAYER
100
AcDb2dPolyline
 66
     1
 10
0.0
 20
0.0
 30
0.0
 40
0.008
 41
0.008
 75
     8
  0
VERTEX
  5
6CC
100
AcDbEntity
  8
TOPLAYER
100
AcDbVertex
100
AcDb2dVertex
 10
11.245545
 20
8.449238
 30
0.0
 42
-0.796533
  0
VERTEX
  5
6CD
100
AcDbEntity
  8
TOPLAYER
100
AcDbVertex
100
AcDb2dVertex
 10
11.245545
 20
8.082762
 30
0.0
  0
SEQEND
  5
6CE
100
AcDbEntity
  8
0
  0
POLYLINE
  5
6CF
100
AcDbEntity
  8
TOPLAYER
100
AcDb2dPolyline
 66
     1
 10
0.0
 20
0.0
 30
0.0
 70
     1
 40
0.004
 41
0.004
 75
     8
  0
VERTEX
  5
6D0
100
AcDbEntity
  8
TOPLAYER
100
AcDbVertex
100
AcDb2dVertex
 10
11.243545
 20
8.449238
 30
0.0
 42
1.0
  0
VERTEX
  5
6D1
100
AcDbEntity
  8
TOPLAYER
100
AcDbVertex
100
AcDb2dVertex
 10
11.247545
 20
8.449238
 30
0.0
 42
1.0
  0
SEQEND
  5
6D2
100
AcDbEntity
  8
0
  0
POLYLINE
  5
6D3
100
AcDbEntity
  8
TOPLAYER
100
AcDb2dPolyline
 66
     1
 10
0.0
 20
0.0
 30
0.0
 70
     1
 40
0.004
 41
0.004
 75
     8
  0
VERTEX
  5
6D4
100
AcDbEntity
  8
TOPLAYER
100
AcDbVertex
100
AcDb2dVertex
 10
11.243545
 20
8.082762
 30
0.0
 42
1.0
  0
VERTEX
  5
6D5
100
AcDbEntity
  8
TOPLAYER
100
AcDbVertex
100
AcDb2dVertex
 10
11.247545
 20
8.082762
 30
0.0
 42
1.0
  0
SEQEND
  5
6D6
100
AcDbEntity
  8
0
  0
POLYLINE
  5
6D7
100
AcDbEntity
  8
TOPLAYER
100
AcDb2dPolyline
 66
     1
 10
0.0
 20
0.0
 30
0.0
 40
0.008
 41
0.008
 75
     8
  0
VERTEX
  5
6D8
100
AcDbEntity
  8
TOPLAYER
100
AcDbVertex
100
AcDb2dVertex
 10
11.149
 20
7.960928
 30
0.0
 42
-0.349592
  0
VERTEX
  5
6D9
100
AcDbEntity
  8
TOPLAYER
100
AcDbVertex
100
AcDb2dVertex
 10
11.246045
 20
8.082762
 30
0.0
  0
SEQEND
  5
6DA
100
AcDbEntity
  8
0
  0
POLYLINE
  5
6DB
100
AcDbEntity
  8
TOPLAYER
100
AcDb2dPolyline
 66
     1
 10
0.0
 20
0.0
 30
0.0
 70
     1
 40
0.004
 41
0.004
 75
     8
  0
VERTEX
  5
6DC
100
AcDbEntity
  8
TOPLAYER
100
AcDbVertex
100
AcDb2dVertex
 10
11.147
 20
7.960928
 30
0.0
 42
1.0
  0
VERTEX
  5
6DD
100
AcDbEntity
  8
TOPLAYER
100
AcDbVertex
100
AcDb2dVertex
 10
11.151
 20
7.960928
 30
0.0
 42
1.0
  0
SEQEND
  5
6DE
100
AcDbEntity
  8
0
  0
POLYLINE
  5
6DF
100
AcDbEntity
  8
TOPLAYER
100
AcDb2dPolyline
 66
     1
 10
0.0
 20
0.0
 30
0.0
 70
     1
 40
0.004
 41
0.004
 75
     8
  0
VERTEX
  5
6E0
100
AcDbEntity
  8
TOPLAYER
100
AcDbVertex
100
AcDb2dVertex
 10
11.244045
 20
8.082762
 30
0.0
 42
1.0
  0
VERTEX
  5
6E1
100
AcDbEntity
  8
TOPLAYER
100
AcDbVertex
100
AcDb2dVertex
 10
11.248045
 20
8.082762
 30
0.0
 42
1.0
  0
SEQEND
  5
6E2
100
AcDbEntity
  8
0
  0
POLYLINE
  5
6E3
100
AcDbEntity
  8
TOPLAYER
100
AcDb2dPolyline
 66
     1
 10
0.0
 20
0.0
 30
0.0
 40
0.008
 41
0.008
 75
     8
  0
VERTEX
  5
6E4
100
AcDbEntity
  8
TOPLAYER
100
AcDbVertex
100
AcDb2dVertex
 10
11.246045
 20
8.449239
 30
0.0
 42
-0.349592
  0
VERTEX
  5
6E5
100
AcDbEntity
  8
TOPLAYER
100
AcDbVertex
100
AcDb2dVertex
 10
11.149
 20
8.571073
 30
0.0
  0
SEQEND
  5
6E6
100
AcDbEntity
  8
0
  0
POLYLINE
  5
6E7
100
AcDbEntity
  8
TOPLAYER
100
AcDb2dPolyline
 66
     1
 10
0.0
 20
0.0
 30
0.0
 70
     1
 40
0.004
 41
0.004
 75
     8
  0
VERTEX
  5
6E8
100
AcDbEntity
  8
TOPLAYER
100
AcDbVertex
100
AcDb2dVertex
 10
11.244045
 20
8.449239
 30
0.0
 42
1.0
  0
VERTEX
  5
6E9
100
AcDbEntity
  8
TOPLAYER
100
AcDbVertex
100
AcDb2dVertex
 10
11.248045
 20
8.449239
 30
0.0
 42
1.0
  0
SEQEND
  5
6EA
100
AcDbEntity
  8
0
  0
POLYLINE
  5
6EB
100
AcDbEntity
  8
TOPLAYER
100
AcDb2dPolyline
 66
     1
 10
0.0
 20
0.0
 30
0.0
 70
     1
 40
0.004
 41
0.004
 75
     8
  0
VERTEX
  5
6EC
100
AcDbEntity
  8
TOPLAYER
100
AcDbVertex
100
AcDb2dVertex
 10
11.147
 20
8.571073
 30
0.0
 42
1.0
  0
VERTEX
  5
6ED
100
AcDbEntity
  8
TOPLAYER
100
AcDbVertex
100
AcDb2dVertex
 10
11.151
 20
8.571073
 30
0.0
 42
1.0
  0
SEQEND
  5
6EE
100
AcDbEntity
  8
0
  0
POLYLINE
  5
6EF
100
AcDbEntity
  8
TOPLAYER
100
AcDb2dPolyline
 66
     1
 10
0.0
 20
0.0
 30
0.0
 40
0.008
 41
0.008
 75
     8
  0
VERTEX
  5
6F0
100
AcDbEntity
  8
TOPLAYER
100
AcDbVertex
100
AcDb2dVertex
 10
11.245545
 20
5.917238
 30
0.0
 42
-0.349592
  0
VERTEX
  5
6F1
100
AcDbEntity
  8
TOPLAYER
100
AcDbVertex
100
AcDb2dVertex
 10
11.1485
 20
6.039072
 30
0.0
  0
SEQEND
  5
6F2
100
AcDbEntity
  8
0
  0
POLYLINE
  5
6F3
100
AcDbEntity
  8
TOPLAYER
100
AcDb2dPolyline
 66
     1
 10
0.0
 20
0.0
 30
0.0
 70
     1
 40
0.004
 41
0.004
 75
     8
  0
VERTEX
  5
6F4
100
AcDbEntity
  8
TOPLAYER
100
AcDbVertex
100
AcDb2dVertex
 10
11.243545
 20
5.917238
 30
0.0
 42
1.0
  0
VERTEX
  5
6F5
100
AcDbEntity
  8
TOPLAYER
100
AcDbVertex
100
AcDb2dVertex
 10
11.247545
 20
5.917238
 30
0.0
 42
1.0
  0
SEQEND
  5
6F6
100
AcDbEntity
  8
0
  0
POLYLINE
  5
6F7
100
AcDbEntity
  8
TOPLAYER
100
AcDb2dPolyline
 66
     1
 10
0.0
 20
0.0
 30
0.0
 70
     1
 40
0.004
 41
0.004
 75
     8
  0
VERTEX
  5
6F8
100
AcDbEntity
  8
TOPLAYER
100
AcDbVertex
100
AcDb2dVertex
 10
11.1465
 20
6.039072
 30
0.0
 42
1.0
  0
VERTEX
  5
6F9
100
AcDbEntity
  8
TOPLAYER
100
AcDbVertex
100
AcDb2dVertex
 10
11.1505
 20
6.039072
 30
0.0
 42
1.0
  0
SEQEND
  5
6FA
100
AcDbEntity
  8
0
  0
POLYLINE
  5
6FB
100
AcDbEntity
  8
TOPLAYER
100
AcDb2dPolyline
 66
     1
 10
0.0
 20
0.0
 30
0.0
 40
0.008
 41
0.008
 75
     8
  0
VERTEX
  5
6FC
100
AcDbEntity
  8
TOPLAYER
100
AcDbVertex
100
AcDb2dVertex
 10
11.1485
 20
5.428928
 30
0.0
 42
-0.349592
  0
VERTEX
  5
6FD
100
AcDbEntity
  8
TOPLAYER
100
AcDbVertex
100
AcDb2dVertex
 10
11.245545
 20
5.550762
 30
0.0
  0
SEQEND
  5
6FE
100
AcDbEntity
  8
0
  0
POLYLINE
  5
6FF
100
AcDbEntity
  8
TOPLAYER
100
AcDb2dPolyline
 66
     1
 10
0.0
 20
0.0
 30
0.0
 70
     1
 40
0.004
 41
0.004
 75
     8
  0
VERTEX
  5
700
100
AcDbEntity
  8
TOPLAYER
100
AcDbVertex
100
AcDb2dVertex
 10
11.1465
 20
5.428928
 30
0.0
 42
1.0
  0
VERTEX
  5
701
100
AcDbEntity
  8
TOPLAYER
100
AcDbVertex
100
AcDb2dVertex
 10
11.1505
 20
5.428928
 30
0.0
 42
1.0
  0
SEQEND
  5
702
100
AcDbEntity
  8
0
  0
POLYLINE
  5
703
100
AcDbEntity
  8
TOPLAYER
100
AcDb2dPolyline
 66
     1
 10
0.0
 20
0.0
 30
0.0
 70
     1
 40
0.004
 41
0.004
 75
     8
  0
VERTEX
  5
704
100
AcDbEntity
  8
TOPLAYER
100
AcDbVertex
100
AcDb2dVertex
 10
11.243545
 20
5.550762
 30
0.0
 42
1.0
  0
VERTEX
  5
705
100
AcDbEntity
  8
TOPLAYER
100
AcDbVertex
100
AcDb2dVertex
 10
11.247545
 20
5.550762
 30
0.0
 42
1.0
  0
SEQEND
  5
706
100
AcDbEntity
  8
0
  0
POLYLINE
  5
707
100
AcDbEntity
  8
TOPLAYER
100
AcDb2dPolyline
 66
     1
 10
0.0
 20
0.0
 30
0.0
 70
     1
 40
0.008
 41
0.008
 75
     8
  0
VERTEX
  5
708
100
AcDbEntity
  8
TOPLAYER
100
AcDbVertex
100
AcDb2dVertex
 10
6.964137
 20
4.066
 30
0.0
 42
1.0
  0
VERTEX
  5
709
100
AcDbEntity
  8
TOPLAYER
100
AcDbVertex
100
AcDb2dVertex
 10
6.792137
 20
4.066
 30
0.0
 42
1.0
  0
SEQEND
  5
70A
100
AcDbEntity
  8
0
  0
POLYLINE
  5
70B
100
AcDbEntity
  8
TOPLAYER
100
AcDb2dPolyline
 66
     1
 10
0.0
 20
0.0
 30
0.0
 70
     1
 40
0.004
 41
0.004
 75
     8
  0
VERTEX
  5
70C
100
AcDbEntity
  8
TOPLAYER
100
AcDbVertex
100
AcDb2dVertex
 10
6.962137
 20
4.066
 30
0.0
 42
1.0
  0
VERTEX
  5
70D
100
AcDbEntity
  8
TOPLAYER
100
AcDbVertex
100
AcDb2dVertex
 10
6.966137
 20
4.066
 30
0.0
 42
1.0
  0
SEQEND
  5
70E
100
AcDbEntity
  8
0
  0
POLYLINE
  5
70F
100
AcDbEntity
  8
TOPLAYER
100
AcDb2dPolyline
 66
     1
 10
0.0
 20
0.0
 30
0.0
 70
     1
 40
0.004
 41
0.004
 75
     8
  0
VERTEX
  5
710
100
AcDbEntity
  8
TOPLAYER
100
AcDbVertex
100
AcDb2dVertex
 10
6.790137
 20
4.066
 30
0.0
 42
1.0
  0
VERTEX
  5
711
100
AcDbEntity
  8
TOPLAYER
100
AcDbVertex
100
AcDb2dVertex
 10
6.794137
 20
4.066
 30
0.0
 42
1.0
  0
SEQEND
  5
712
100
AcDbEntity
  8
0
  0
POLYLINE
  5
713
100
AcDbEntity
  8
TOPLAYER
100
AcDb2dPolyline
 66
     1
 10
0.0
 20
0.0
 30
0.0
 40
0.008
 41
0.008
 75
     8
  0
VERTEX
  5
714
100
AcDbEntity
  8
TOPLAYER
100
AcDbVertex
100
AcDb2dVertex
 10
9.307
 20
4.0115
 30
0.0
 42
-0.748461
  0
VERTEX
  5
715
100
AcDbEntity
  8
TOPLAYER
100
AcDbVertex
100
AcDb2dVertex
 10
8.936666
 20
4.011696
 30
0.0
  0
SEQEND
  5
716
100
AcDbEntity
  8
0
  0
POLYLINE
  5
717
100
AcDbEntity
  8
TOPLAYER
100
AcDb2dPolyline
 66
     1
 10
0.0
 20
0.0
 30
0.0
 70
     1
 40
0.004
 41
0.004
 75
     8
  0
VERTEX
  5
718
100
AcDbEntity
  8
TOPLAYER
100
AcDbVertex
100
AcDb2dVertex
 10
9.305
 20
4.0115
 30
0.0
 42
1.0
  0
VERTEX
  5
719
100
AcDbEntity
  8
TOPLAYER
100
AcDbVertex
100
AcDb2dVertex
 10
9.309
 20
4.0115
 30
0.0
 42
1.0
  0
SEQEND
  5
71A
100
AcDbEntity
  8
0
  0
POLYLINE
  5
71B
100
AcDbEntity
  8
TOPLAYER
100
AcDb2dPolyline
 66
     1
 10
0.0
 20
0.0
 30
0.0
 70
     1
 40
0.004
 41
0.004
 75
     8
  0
VERTEX
  5
71C
100
AcDbEntity
  8
TOPLAYER
100
AcDbVertex
100
AcDb2dVertex
 10
8.934667
 20
4.011696
 30
0.0
 42
1.0
  0
VERTEX
  5
71D
100
AcDbEntity
  8
TOPLAYER
100
AcDbVertex
100
AcDb2dVertex
 10
8.938667
 20
4.011696
 30
0.0
 42
1.0
  0
SEQEND
  5
71E
100
AcDbEntity
  8
0
  0
POLYLINE
  5
71F
100
AcDbEntity
  8
TOPLAYER
100
AcDb2dPolyline
 66
     1
 10
0.0
 20
0.0
 30
0.0
 40
0.008
 41
0.008
 75
     8
  0
VERTEX
  5
720
100
AcDbEntity
  8
TOPLAYER
100
AcDbVertex
100
AcDb2dVertex
 10
10.597813
 20
9.374216
 30
0.0
 42
-0.065487
  0
VERTEX
  5
721
100
AcDbEntity
  8
TOPLAYER
100
AcDbVertex
100
AcDb2dVertex
 10
11.149285
 20
8.61825
 30
0.0
  0
SEQEND
  5
722
100
AcDbEntity
  8
0
  0
POLYLINE
  5
723
100
AcDbEntity
  8
TOPLAYER
100
AcDb2dPolyline
 66
     1
 10
0.0
 20
0.0
 30
0.0
 70
     1
 40
0.004
 41
0.004
 75
     8
  0
VERTEX
  5
724
100
AcDbEntity
  8
TOPLAYER
100
AcDbVertex
100
AcDb2dVertex
 10
10.595813
 20
9.374216
 30
0.0
 42
1.0
  0
VERTEX
  5
725
100
AcDbEntity
  8
TOPLAYER
100
AcDbVertex
100
AcDb2dVertex
 10
10.599813
 20
9.374216
 30
0.0
 42
1.0
  0
SEQEND
  5
726
100
AcDbEntity
  8
0
  0
POLYLINE
  5
727
100
AcDbEntity
  8
TOPLAYER
100
AcDb2dPolyline
 66
     1
 10
0.0
 20
0.0
 30
0.0
 70
     1
 40
0.004
 41
0.004
 75
     8
  0
VERTEX
  5
728
100
AcDbEntity
  8
TOPLAYER
100
AcDbVertex
100
AcDb2dVertex
 10
11.147285
 20
8.61825
 30
0.0
 42
1.0
  0
VERTEX
  5
729
100
AcDbEntity
  8
TOPLAYER
100
AcDbVertex
100
AcDb2dVertex
 10
11.151285
 20
8.61825
 30
0.0
 42
1.0
  0
SEQEND
  5
72A
100
AcDbEntity
  8
0
  0
TEXT
  5
72B
100
AcDbEntity
  8
MECHANICAL1
100
AcDbText
 10
6.265
 20
2.92
 30
0.0
 40
0.15
  1
VersaTainer EndCap Layout
100
AcDbText
  0
TEXT
  5
72C
100
AcDbEntity
  8
MECHANICAL1
100
AcDbText
 10
4.5791
 20
6.0795
 30
0.0
 40
0.06
  1
R125
100
AcDbText
  0
TEXT
  5
72D
100
AcDbEntity
  8
MECHANICAL1
100
AcDbText
 10
6.29
 20
3.705
 30
0.0
 40
0.06
  1
Typ2
100
AcDbText
  0
TEXT
  5
72E
100
AcDbEntity
  8
MECHANICAL1
100
AcDbText
 10
6.295
 20
3.8
 30
0.0
 40
0.06
  1
R188
100
AcDbText
  0
TEXT
  5
72F
100
AcDbEntity
  8
MECHANICAL1
100
AcDbText
 10
11.582
 20
8.443
 30
0.0
 40
0.06
  1
Typ 8
100
AcDbText
  0
TEXT
  5
730
100
AcDbEntity
  8
MECHANICAL1
100
AcDbText
 10
11.603
 20
8.536
 30
0.0
 40
0.06
  1
R86
100
AcDbText
  0
TEXT
  5
731
100
AcDbEntity
  8
MECHANICAL1
100
AcDbText
 10
4.163
 20
8.418
 30
0.0
 40
0.06
  1
Typ 4
100
AcDbText
  0
TEXT
  5
732
100
AcDbEntity
  8
MECHANICAL1
100
AcDbText
 10
5.728
 20
9.588
 30
0.0
 40
0.06
  1
129
100
AcDbText
  0
TEXT
  5
733
100
AcDbEntity
  8
MECHANICAL1
100
AcDbText
 10
5.593
 20
4.031
 30
0.0
 40
0.06
  1
55
100
AcDbText
  0
TEXT
  5
734
100
AcDbEntity
  8
MECHANICAL1
100
AcDbText
 10
4.185
 20
8.538
 30
0.0
 40
0.06
  1
R188
100
AcDbText
  0
TEXT
  5
735
100
AcDbEntity
  8
MECHANICAL1
100
AcDbText
 10
4.615
 20
5.135
 30
0.0
 40
0.06
  1
40
100
AcDbText
  0
TEXT
  5
736
100
AcDbEntity
  8
MECHANICAL1
100
AcDbText
 10
8.19
 20
6.92
 30
0.0
 40
0.06
  1
100
100
AcDbText
  0
TEXT
  5
737
100
AcDbEntity
  8
MECHANICAL1
100
AcDbText
 10
7.69
 20
7.02
 30
0.0
 40
0.06
  1
100
100
AcDbText
  0
TEXT
  5
738
100
AcDbEntity
  8
MECHANICAL1
100
AcDbText
 10
6.78
 20
2.71
 30
0.0
 40
0.075
  1
Dimensions in Mils (1000mils = 1")
100
AcDbText
  0
POLYLINE
  5
739
100
AcDbEntity
  8
MECHANICAL1
100
AcDb2dPolyline
 66
     1
 10
0.0
 20
0.0
 30
0.0
 40
0.01
 41
0.01
 75
     8
  0
VERTEX
  5
73A
100
AcDbEntity
  8
MECHANICAL1
100
AcDbVertex
100
AcDb2dVertex
 10
4.519
 20
6.039
 30
0.0
  0
VERTEX
  5
73B
100
AcDbEntity
  8
MECHANICAL1
100
AcDbVertex
100
AcDb2dVertex
 10
4.539
 20
6.039
 30
0.0
  0
SEQEND
  5
73C
100
AcDbEntity
  8
0
  0
POLYLINE
  5
73D
100
AcDbEntity
  8
MECHANICAL1
100
AcDb2dPolyline
 66
     1
 10
0.0
 20
0.0
 30
0.0
 70
     1
 40
0.005
 41
0.005
 75
     8
  0
VERTEX
  5
73E
100
AcDbEntity
  8
MECHANICAL1
100
AcDbVertex
100
AcDb2dVertex
 10
4.5165
 20
6.039
 30
0.0
 42
1.0
  0
VERTEX
  5
73F
100
AcDbEntity
  8
MECHANICAL1
100
AcDbVertex
100
AcDb2dVertex
 10
4.5215
 20
6.039
 30
0.0
 42
1.0
  0
SEQEND
  5
740
100
AcDbEntity
  8
0
  0
POLYLINE
  5
741
100
AcDbEntity
  8
MECHANICAL1
100
AcDb2dPolyline
 66
     1
 10
0.0
 20
0.0
 30
0.0
 70
     1
 40
0.005
 41
0.005
 75
     8
  0
VERTEX
  5
742
100
AcDbEntity
  8
MECHANICAL1
100
AcDbVertex
100
AcDb2dVertex
 10
4.5365
 20
6.039
 30
0.0
 42
1.0
  0
VERTEX
  5
743
100
AcDbEntity
  8
MECHANICAL1
100
AcDbVertex
100
AcDb2dVertex
 10
4.5415
 20
6.039
 30
0.0
 42
1.0
  0
SEQEND
  5
744
100
AcDbEntity
  8
0
  0
POLYLINE
  5
745
100
AcDbEntity
  8
MECHANICAL1
100
AcDb2dPolyline
 66
     1
 10
0.0
 20
0.0
 30
0.0
 40
0.01
 41
0.01
 75
     8
  0
VERTEX
  5
746
100
AcDbEntity
  8
MECHANICAL1
100
AcDbVertex
100
AcDb2dVertex
 10
4.519
 20
5.734
 30
0.0
  0
VERTEX
  5
747
100
AcDbEntity
  8
MECHANICAL1
100
AcDbVertex
100
AcDb2dVertex
 10
4.539
 20
5.734
 30
0.0
  0
SEQEND
  5
748
100
AcDbEntity
  8
0
  0
POLYLINE
  5
749
100
AcDbEntity
  8
MECHANICAL1
100
AcDb2dPolyline
 66
     1
 10
0.0
 20
0.0
 30
0.0
 70
     1
 40
0.005
 41
0.005
 75
     8
  0
VERTEX
  5
74A
100
AcDbEntity
  8
MECHANICAL1
100
AcDbVertex
100
AcDb2dVertex
 10
4.5165
 20
5.734
 30
0.0
 42
1.0
  0
VERTEX
  5
74B
100
AcDbEntity
  8
MECHANICAL1
100
AcDbVertex
100
AcDb2dVertex
 10
4.5215
 20
5.734
 30
0.0
 42
1.0
  0
SEQEND
  5
74C
100
AcDbEntity
  8
0
  0
POLYLINE
  5
74D
100
AcDbEntity
  8
MECHANICAL1
100
AcDb2dPolyline
 66
     1
 10
0.0
 20
0.0
 30
0.0
 70
     1
 40
0.005
 41
0.005
 75
     8
  0
VERTEX
  5
74E
100
AcDbEntity
  8
MECHANICAL1
100
AcDbVertex
100
AcDb2dVertex
 10
4.5365
 20
5.734
 30
0.0
 42
1.0
  0
VERTEX
  5
74F
100
AcDbEntity
  8
MECHANICAL1
100
AcDbVertex
100
AcDb2dVertex
 10
4.5415
 20
5.734
 30
0.0
 42
1.0
  0
SEQEND
  5
750
100
AcDbEntity
  8
0
  0
POLYLINE
  5
751
100
AcDbEntity
  8
MECHANICAL1
100
AcDb2dPolyline
 66
     1
 10
0.0
 20
0.0
 30
0.0
 40
0.01
 41
0.01
 75
     8
  0
VERTEX
  5
752
100
AcDbEntity
  8
MECHANICAL1
100
AcDbVertex
100
AcDb2dVertex
 10
4.529
 20
6.039
 30
0.0
  0
VERTEX
  5
753
100
AcDbEntity
  8
MECHANICAL1
100
AcDbVertex
100
AcDb2dVertex
 10
4.549
 20
5.979
 30
0.0
  0
SEQEND
  5
754
100
AcDbEntity
  8
0
  0
POLYLINE
  5
755
100
AcDbEntity
  8
MECHANICAL1
100
AcDb2dPolyline
 66
     1
 10
0.0
 20
0.0
 30
0.0
 70
     1
 40
0.005
 41
0.005
 75
     8
  0
VERTEX
  5
756
100
AcDbEntity
  8
MECHANICAL1
100
AcDbVertex
100
AcDb2dVertex
 10
4.5265
 20
6.039
 30
0.0
 42
1.0
  0
VERTEX
  5
757
100
AcDbEntity
  8
MECHANICAL1
100
AcDbVertex
100
AcDb2dVertex
 10
4.5315
 20
6.039
 30
0.0
 42
1.0
  0
SEQEND
  5
758
100
AcDbEntity
  8
0
  0
POLYLINE
  5
759
100
AcDbEntity
  8
MECHANICAL1
100
AcDb2dPolyline
 66
     1
 10
0.0
 20
0.0
 30
0.0
 70
     1
 40
0.005
 41
0.005
 75
     8
  0
VERTEX
  5
75A
100
AcDbEntity
  8
MECHANICAL1
100
AcDbVertex
100
AcDb2dVertex
 10
4.5465
 20
5.979
 30
0.0
 42
1.0
  0
VERTEX
  5
75B
100
AcDbEntity
  8
MECHANICAL1
100
AcDbVertex
100
AcDb2dVertex
 10
4.5515
 20
5.979
 30
0.0
 42
1.0
  0
SEQEND
  5
75C
100
AcDbEntity
  8
0
  0
POLYLINE
  5
75D
100
AcDbEntity
  8
MECHANICAL1
100
AcDb2dPolyline
 66
     1
 10
0.0
 20
0.0
 30
0.0
 40
0.01
 41
0.01
 75
     8
  0
VERTEX
  5
75E
100
AcDbEntity
  8
MECHANICAL1
100
AcDbVertex
100
AcDb2dVertex
 10
4.509
 20
5.979
 30
0.0
  0
VERTEX
  5
75F
100
AcDbEntity
  8
MECHANICAL1
100
AcDbVertex
100
AcDb2dVertex
 10
4.529
 20
6.039
 30
0.0
  0
SEQEND
  5
760
100
AcDbEntity
  8
0
  0
POLYLINE
  5
761
100
AcDbEntity
  8
MECHANICAL1
100
AcDb2dPolyline
 66
     1
 10
0.0
 20
0.0
 30
0.0
 70
     1
 40
0.005
 41
0.005
 75
     8
  0
VERTEX
  5
762
100
AcDbEntity
  8
MECHANICAL1
100
AcDbVertex
100
AcDb2dVertex
 10
4.5065
 20
5.979
 30
0.0
 42
1.0
  0
VERTEX
  5
763
100
AcDbEntity
  8
MECHANICAL1
100
AcDbVertex
100
AcDb2dVertex
 10
4.5115
 20
5.979
 30
0.0
 42
1.0
  0
SEQEND
  5
764
100
AcDbEntity
  8
0
  0
POLYLINE
  5
765
100
AcDbEntity
  8
MECHANICAL1
100
AcDb2dPolyline
 66
     1
 10
0.0
 20
0.0
 30
0.0
 70
     1
 40
0.005
 41
0.005
 75
     8
  0
VERTEX
  5
766
100
AcDbEntity
  8
MECHANICAL1
100
AcDbVertex
100
AcDb2dVertex
 10
4.5265
 20
6.039
 30
0.0
 42
1.0
  0
VERTEX
  5
767
100
AcDbEntity
  8
MECHANICAL1
100
AcDbVertex
100
AcDb2dVertex
 10
4.5315
 20
6.039
 30
0.0
 42
1.0
  0
SEQEND
  5
768
100
AcDbEntity
  8
0
  0
POLYLINE
  5
769
100
AcDbEntity
  8
MECHANICAL1
100
AcDb2dPolyline
 66
     1
 10
0.0
 20
0.0
 30
0.0
 40
0.01
 41
0.01
 75
     8
  0
VERTEX
  5
76A
100
AcDbEntity
  8
MECHANICAL1
100
AcDbVertex
100
AcDb2dVertex
 10
4.529
 20
5.734
 30
0.0
  0
VERTEX
  5
76B
100
AcDbEntity
  8
MECHANICAL1
100
AcDbVertex
100
AcDb2dVertex
 10
4.549
 20
5.794
 30
0.0
  0
SEQEND
  5
76C
100
AcDbEntity
  8
0
  0
POLYLINE
  5
76D
100
AcDbEntity
  8
MECHANICAL1
100
AcDb2dPolyline
 66
     1
 10
0.0
 20
0.0
 30
0.0
 70
     1
 40
0.005
 41
0.005
 75
     8
  0
VERTEX
  5
76E
100
AcDbEntity
  8
MECHANICAL1
100
AcDbVertex
100
AcDb2dVertex
 10
4.5265
 20
5.734
 30
0.0
 42
1.0
  0
VERTEX
  5
76F
100
AcDbEntity
  8
MECHANICAL1
100
AcDbVertex
100
AcDb2dVertex
 10
4.5315
 20
5.734
 30
0.0
 42
1.0
  0
SEQEND
  5
770
100
AcDbEntity
  8
0
  0
POLYLINE
  5
771
100
AcDbEntity
  8
MECHANICAL1
100
AcDb2dPolyline
 66
     1
 10
0.0
 20
0.0
 30
0.0
 70
     1
 40
0.005
 41
0.005
 75
     8
  0
VERTEX
  5
772
100
AcDbEntity
  8
MECHANICAL1
100
AcDbVertex
100
AcDb2dVertex
 10
4.5465
 20
5.794
 30
0.0
 42
1.0
  0
VERTEX
  5
773
100
AcDbEntity
  8
MECHANICAL1
100
AcDbVertex
100
AcDb2dVertex
 10
4.5515
 20
5.794
 30
0.0
 42
1.0
  0
SEQEND
  5
774
100
AcDbEntity
  8
0
  0
POLYLINE
  5
775
100
AcDbEntity
  8
MECHANICAL1
100
AcDb2dPolyline
 66
     1
 10
0.0
 20
0.0
 30
0.0
 40
0.01
 41
0.01
 75
     8
  0
VERTEX
  5
776
100
AcDbEntity
  8
MECHANICAL1
100
AcDbVertex
100
AcDb2dVertex
 10
4.509
 20
5.794
 30
0.0
  0
VERTEX
  5
777
100
AcDbEntity
  8
MECHANICAL1
100
AcDbVertex
100
AcDb2dVertex
 10
4.529
 20
5.734
 30
0.0
  0
SEQEND
  5
778
100
AcDbEntity
  8
0
  0
POLYLINE
  5
779
100
AcDbEntity
  8
MECHANICAL1
100
AcDb2dPolyline
 66
     1
 10
0.0
 20
0.0
 30
0.0
 70
     1
 40
0.005
 41
0.005
 75
     8
  0
VERTEX
  5
77A
100
AcDbEntity
  8
MECHANICAL1
100
AcDbVertex
100
AcDb2dVertex
 10
4.5065
 20
5.794
 30
0.0
 42
1.0
  0
VERTEX
  5
77B
100
AcDbEntity
  8
MECHANICAL1
100
AcDbVertex
100
AcDb2dVertex
 10
4.5115
 20
5.794
 30
0.0
 42
1.0
  0
SEQEND
  5
77C
100
AcDbEntity
  8
0
  0
POLYLINE
  5
77D
100
AcDbEntity
  8
MECHANICAL1
100
AcDb2dPolyline
 66
     1
 10
0.0
 20
0.0
 30
0.0
 70
     1
 40
0.005
 41
0.005
 75
     8
  0
VERTEX
  5
77E
100
AcDbEntity
  8
MECHANICAL1
100
AcDbVertex
100
AcDb2dVertex
 10
4.5265
 20
5.734
 30
0.0
 42
1.0
  0
VERTEX
  5
77F
100
AcDbEntity
  8
MECHANICAL1
100
AcDbVertex
100
AcDb2dVertex
 10
4.5315
 20
5.734
 30
0.0
 42
1.0
  0
SEQEND
  5
780
100
AcDbEntity
  8
0
  0
POLYLINE
  5
781
100
AcDbEntity
  8
MECHANICAL1
100
AcDb2dPolyline
 66
     1
 10
0.0
 20
0.0
 30
0.0
 40
0.01
 41
0.01
 75
     8
  0
VERTEX
  5
782
100
AcDbEntity
  8
MECHANICAL1
100
AcDbVertex
100
AcDb2dVertex
 10
4.529
 20
5.982474
 30
0.0
  0
VERTEX
  5
783
100
AcDbEntity
  8
MECHANICAL1
100
AcDbVertex
100
AcDb2dVertex
 10
4.529
 20
6.039
 30
0.0
  0
SEQEND
  5
784
100
AcDbEntity
  8
0
  0
POLYLINE
  5
785
100
AcDbEntity
  8
MECHANICAL1
100
AcDb2dPolyline
 66
     1
 10
0.0
 20
0.0
 30
0.0
 70
     1
 40
0.005
 41
0.005
 75
     8
  0
VERTEX
  5
786
100
AcDbEntity
  8
MECHANICAL1
100
AcDbVertex
100
AcDb2dVertex
 10
4.5265
 20
5.982474
 30
0.0
 42
1.0
  0
VERTEX
  5
787
100
AcDbEntity
  8
MECHANICAL1
100
AcDbVertex
100
AcDb2dVertex
 10
4.5315
 20
5.982474
 30
0.0
 42
1.0
  0
SEQEND
  5
788
100
AcDbEntity
  8
0
  0
POLYLINE
  5
789
100
AcDbEntity
  8
MECHANICAL1
100
AcDb2dPolyline
 66
     1
 10
0.0
 20
0.0
 30
0.0
 70
     1
 40
0.005
 41
0.005
 75
     8
  0
VERTEX
  5
78A
100
AcDbEntity
  8
MECHANICAL1
100
AcDbVertex
100
AcDb2dVertex
 10
4.5265
 20
6.039
 30
0.0
 42
1.0
  0
VERTEX
  5
78B
100
AcDbEntity
  8
MECHANICAL1
100
AcDbVertex
100
AcDb2dVertex
 10
4.5315
 20
6.039
 30
0.0
 42
1.0
  0
SEQEND
  5
78C
100
AcDbEntity
  8
0
  0
POLYLINE
  5
78D
100
AcDbEntity
  8
MECHANICAL1
100
AcDb2dPolyline
 66
     1
 10
0.0
 20
0.0
 30
0.0
 40
0.01
 41
0.01
 75
     8
  0
VERTEX
  5
78E
100
AcDbEntity
  8
MECHANICAL1
100
AcDbVertex
100
AcDb2dVertex
 10
4.529
 20
5.734
 30
0.0
  0
VERTEX
  5
78F
100
AcDbEntity
  8
MECHANICAL1
100
AcDbVertex
100
AcDb2dVertex
 10
4.529
 20
5.790526
 30
0.0
  0
SEQEND
  5
790
100
AcDbEntity
  8
0
  0
POLYLINE
  5
791
100
AcDbEntity
  8
MECHANICAL1
100
AcDb2dPolyline
 66
     1
 10
0.0
 20
0.0
 30
0.0
 70
     1
 40
0.005
 41
0.005
 75
     8
  0
VERTEX
  5
792
100
AcDbEntity
  8
MECHANICAL1
100
AcDbVertex
100
AcDb2dVertex
 10
4.5265
 20
5.734
 30
0.0
 42
1.0
  0
VERTEX
  5
793
100
AcDbEntity
  8
MECHANICAL1
100
AcDbVertex
100
AcDb2dVertex
 10
4.5315
 20
5.734
 30
0.0
 42
1.0
  0
SEQEND
  5
794
100
AcDbEntity
  8
0
  0
POLYLINE
  5
795
100
AcDbEntity
  8
MECHANICAL1
100
AcDb2dPolyline
 66
     1
 10
0.0
 20
0.0
 30
0.0
 70
     1
 40
0.005
 41
0.005
 75
     8
  0
VERTEX
  5
796
100
AcDbEntity
  8
MECHANICAL1
100
AcDbVertex
100
AcDb2dVertex
 10
4.5265
 20
5.790526
 30
0.0
 42
1.0
  0
VERTEX
  5
797
100
AcDbEntity
  8
MECHANICAL1
100
AcDbVertex
100
AcDb2dVertex
 10
4.5315
 20
5.790526
 30
0.0
 42
1.0
  0
SEQEND
  5
798
100
AcDbEntity
  8
0
  0
POLYLINE
  5
799
100
AcDbEntity
  8
MECHANICAL1
100
AcDb2dPolyline
 66
     1
 10
0.0
 20
0.0
 30
0.0
 40
0.01
 41
0.01
 75
     8
  0
VERTEX
  5
79A
100
AcDbEntity
  8
MECHANICAL1
100
AcDbVertex
100
AcDb2dVertex
 10
3.99
 20
9.679
 30
0.0
  0
VERTEX
  5
79B
100
AcDbEntity
  8
MECHANICAL1
100
AcDbVertex
100
AcDb2dVertex
 10
4.01
 20
9.679
 30
0.0
  0
SEQEND
  5
79C
100
AcDbEntity
  8
0
  0
POLYLINE
  5
79D
100
AcDbEntity
  8
MECHANICAL1
100
AcDb2dPolyline
 66
     1
 10
0.0
 20
0.0
 30
0.0
 70
     1
 40
0.005
 41
0.005
 75
     8
  0
VERTEX
  5
79E
100
AcDbEntity
  8
MECHANICAL1
100
AcDbVertex
100
AcDb2dVertex
 10
3.9875
 20
9.679
 30
0.0
 42
1.0
  0
VERTEX
  5
79F
100
AcDbEntity
  8
MECHANICAL1
100
AcDbVertex
100
AcDb2dVertex
 10
3.9925
 20
9.679
 30
0.0
 42
1.0
  0
SEQEND
  5
7A0
100
AcDbEntity
  8
0
  0
POLYLINE
  5
7A1
100
AcDbEntity
  8
MECHANICAL1
100
AcDb2dPolyline
 66
     1
 10
0.0
 20
0.0
 30
0.0
 70
     1
 40
0.005
 41
0.005
 75
     8
  0
VERTEX
  5
7A2
100
AcDbEntity
  8
MECHANICAL1
100
AcDbVertex
100
AcDb2dVertex
 10
4.0075
 20
9.679
 30
0.0
 42
1.0
  0
VERTEX
  5
7A3
100
AcDbEntity
  8
MECHANICAL1
100
AcDbVertex
100
AcDb2dVertex
 10
4.0125
 20
9.679
 30
0.0
 42
1.0
  0
SEQEND
  5
7A4
100
AcDbEntity
  8
0
  0
POLYLINE
  5
7A5
100
AcDbEntity
  8
MECHANICAL1
100
AcDb2dPolyline
 66
     1
 10
0.0
 20
0.0
 30
0.0
 40
0.01
 41
0.01
 75
     8
  0
VERTEX
  5
7A6
100
AcDbEntity
  8
MECHANICAL1
100
AcDbVertex
100
AcDb2dVertex
 10
3.99
 20
7.0
 30
0.0
  0
VERTEX
  5
7A7
100
AcDbEntity
  8
MECHANICAL1
100
AcDbVertex
100
AcDb2dVertex
 10
4.01
 20
7.0
 30
0.0
  0
SEQEND
  5
7A8
100
AcDbEntity
  8
0
  0
POLYLINE
  5
7A9
100
AcDbEntity
  8
MECHANICAL1
100
AcDb2dPolyline
 66
     1
 10
0.0
 20
0.0
 30
0.0
 70
     1
 40
0.005
 41
0.005
 75
     8
  0
VERTEX
  5
7AA
100
AcDbEntity
  8
MECHANICAL1
100
AcDbVertex
100
AcDb2dVertex
 10
3.9875
 20
7.0
 30
0.0
 42
1.0
  0
VERTEX
  5
7AB
100
AcDbEntity
  8
MECHANICAL1
100
AcDbVertex
100
AcDb2dVertex
 10
3.9925
 20
7.0
 30
0.0
 42
1.0
  0
SEQEND
  5
7AC
100
AcDbEntity
  8
0
  0
POLYLINE
  5
7AD
100
AcDbEntity
  8
MECHANICAL1
100
AcDb2dPolyline
 66
     1
 10
0.0
 20
0.0
 30
0.0
 70
     1
 40
0.005
 41
0.005
 75
     8
  0
VERTEX
  5
7AE
100
AcDbEntity
  8
MECHANICAL1
100
AcDbVertex
100
AcDb2dVertex
 10
4.0075
 20
7.0
 30
0.0
 42
1.0
  0
VERTEX
  5
7AF
100
AcDbEntity
  8
MECHANICAL1
100
AcDbVertex
100
AcDb2dVertex
 10
4.0125
 20
7.0
 30
0.0
 42
1.0
  0
SEQEND
  5
7B0
100
AcDbEntity
  8
0
  0
POLYLINE
  5
7B1
100
AcDbEntity
  8
MECHANICAL1
100
AcDb2dPolyline
 66
     1
 10
0.0
 20
0.0
 30
0.0
 40
0.01
 41
0.01
 75
     8
  0
VERTEX
  5
7B2
100
AcDbEntity
  8
MECHANICAL1
100
AcDbVertex
100
AcDb2dVertex
 10
4.0
 20
9.679
 30
0.0
  0
VERTEX
  5
7B3
100
AcDbEntity
  8
MECHANICAL1
100
AcDbVertex
100
AcDb2dVertex
 10
4.02
 20
9.619
 30
0.0
  0
SEQEND
  5
7B4
100
AcDbEntity
  8
0
  0
POLYLINE
  5
7B5
100
AcDbEntity
  8
MECHANICAL1
100
AcDb2dPolyline
 66
     1
 10
0.0
 20
0.0
 30
0.0
 70
     1
 40
0.005
 41
0.005
 75
     8
  0
VERTEX
  5
7B6
100
AcDbEntity
  8
MECHANICAL1
100
AcDbVertex
100
AcDb2dVertex
 10
3.9975
 20
9.679
 30
0.0
 42
1.0
  0
VERTEX
  5
7B7
100
AcDbEntity
  8
MECHANICAL1
100
AcDbVertex
100
AcDb2dVertex
 10
4.0025
 20
9.679
 30
0.0
 42
1.0
  0
SEQEND
  5
7B8
100
AcDbEntity
  8
0
  0
POLYLINE
  5
7B9
100
AcDbEntity
  8
MECHANICAL1
100
AcDb2dPolyline
 66
     1
 10
0.0
 20
0.0
 30
0.0
 70
     1
 40
0.005
 41
0.005
 75
     8
  0
VERTEX
  5
7BA
100
AcDbEntity
  8
MECHANICAL1
100
AcDbVertex
100
AcDb2dVertex
 10
4.0175
 20
9.619
 30
0.0
 42
1.0
  0
VERTEX
  5
7BB
100
AcDbEntity
  8
MECHANICAL1
100
AcDbVertex
100
AcDb2dVertex
 10
4.0225
 20
9.619
 30
0.0
 42
1.0
  0
SEQEND
  5
7BC
100
AcDbEntity
  8
0
  0
POLYLINE
  5
7BD
100
AcDbEntity
  8
MECHANICAL1
100
AcDb2dPolyline
 66
     1
 10
0.0
 20
0.0
 30
0.0
 40
0.01
 41
0.01
 75
     8
  0
VERTEX
  5
7BE
100
AcDbEntity
  8
MECHANICAL1
100
AcDbVertex
100
AcDb2dVertex
 10
3.98
 20
9.619
 30
0.0
  0
VERTEX
  5
7BF
100
AcDbEntity
  8
MECHANICAL1
100
AcDbVertex
100
AcDb2dVertex
 10
4.0
 20
9.679
 30
0.0
  0
SEQEND
  5
7C0
100
AcDbEntity
  8
0
  0
POLYLINE
  5
7C1
100
AcDbEntity
  8
MECHANICAL1
100
AcDb2dPolyline
 66
     1
 10
0.0
 20
0.0
 30
0.0
 70
     1
 40
0.005
 41
0.005
 75
     8
  0
VERTEX
  5
7C2
100
AcDbEntity
  8
MECHANICAL1
100
AcDbVertex
100
AcDb2dVertex
 10
3.9775
 20
9.619
 30
0.0
 42
1.0
  0
VERTEX
  5
7C3
100
AcDbEntity
  8
MECHANICAL1
100
AcDbVertex
100
AcDb2dVertex
 10
3.9825
 20
9.619
 30
0.0
 42
1.0
  0
SEQEND
  5
7C4
100
AcDbEntity
  8
0
  0
POLYLINE
  5
7C5
100
AcDbEntity
  8
MECHANICAL1
100
AcDb2dPolyline
 66
     1
 10
0.0
 20
0.0
 30
0.0
 70
     1
 40
0.005
 41
0.005
 75
     8
  0
VERTEX
  5
7C6
100
AcDbEntity
  8
MECHANICAL1
100
AcDbVertex
100
AcDb2dVertex
 10
3.9975
 20
9.679
 30
0.0
 42
1.0
  0
VERTEX
  5
7C7
100
AcDbEntity
  8
MECHANICAL1
100
AcDbVertex
100
AcDb2dVertex
 10
4.0025
 20
9.679
 30
0.0
 42
1.0
  0
SEQEND
  5
7C8
100
AcDbEntity
  8
0
  0
POLYLINE
  5
7C9
100
AcDbEntity
  8
MECHANICAL1
100
AcDb2dPolyline
 66
     1
 10
0.0
 20
0.0
 30
0.0
 40
0.01
 41
0.01
 75
     8
  0
VERTEX
  5
7CA
100
AcDbEntity
  8
MECHANICAL1
100
AcDbVertex
100
AcDb2dVertex
 10
4.0
 20
7.0
 30
0.0
  0
VERTEX
  5
7CB
100
AcDbEntity
  8
MECHANICAL1
100
AcDbVertex
100
AcDb2dVertex
 10
4.02
 20
7.06
 30
0.0
  0
SEQEND
  5
7CC
100
AcDbEntity
  8
0
  0
POLYLINE
  5
7CD
100
AcDbEntity
  8
MECHANICAL1
100
AcDb2dPolyline
 66
     1
 10
0.0
 20
0.0
 30
0.0
 70
     1
 40
0.005
 41
0.005
 75
     8
  0
VERTEX
  5
7CE
100
AcDbEntity
  8
MECHANICAL1
100
AcDbVertex
100
AcDb2dVertex
 10
3.9975
 20
7.0
 30
0.0
 42
1.0
  0
VERTEX
  5
7CF
100
AcDbEntity
  8
MECHANICAL1
100
AcDbVertex
100
AcDb2dVertex
 10
4.0025
 20
7.0
 30
0.0
 42
1.0
  0
SEQEND
  5
7D0
100
AcDbEntity
  8
0
  0
POLYLINE
  5
7D1
100
AcDbEntity
  8
MECHANICAL1
100
AcDb2dPolyline
 66
     1
 10
0.0
 20
0.0
 30
0.0
 70
     1
 40
0.005
 41
0.005
 75
     8
  0
VERTEX
  5
7D2
100
AcDbEntity
  8
MECHANICAL1
100
AcDbVertex
100
AcDb2dVertex
 10
4.0175
 20
7.06
 30
0.0
 42
1.0
  0
VERTEX
  5
7D3
100
AcDbEntity
  8
MECHANICAL1
100
AcDbVertex
100
AcDb2dVertex
 10
4.0225
 20
7.06
 30
0.0
 42
1.0
  0
SEQEND
  5
7D4
100
AcDbEntity
  8
0
  0
POLYLINE
  5
7D5
100
AcDbEntity
  8
MECHANICAL1
100
AcDb2dPolyline
 66
     1
 10
0.0
 20
0.0
 30
0.0
 40
0.01
 41
0.01
 75
     8
  0
VERTEX
  5
7D6
100
AcDbEntity
  8
MECHANICAL1
100
AcDbVertex
100
AcDb2dVertex
 10
3.98
 20
7.06
 30
0.0
  0
VERTEX
  5
7D7
100
AcDbEntity
  8
MECHANICAL1
100
AcDbVertex
100
AcDb2dVertex
 10
4.0
 20
7.0
 30
0.0
  0
SEQEND
  5
7D8
100
AcDbEntity
  8
0
  0
POLYLINE
  5
7D9
100
AcDbEntity
  8
MECHANICAL1
100
AcDb2dPolyline
 66
     1
 10
0.0
 20
0.0
 30
0.0
 70
     1
 40
0.005
 41
0.005
 75
     8
  0
VERTEX
  5
7DA
100
AcDbEntity
  8
MECHANICAL1
100
AcDbVertex
100
AcDb2dVertex
 10
3.9775
 20
7.06
 30
0.0
 42
1.0
  0
VERTEX
  5
7DB
100
AcDbEntity
  8
MECHANICAL1
100
AcDbVertex
100
AcDb2dVertex
 10
3.9825
 20
7.06
 30
0.0
 42
1.0
  0
SEQEND
  5
7DC
100
AcDbEntity
  8
0
  0
POLYLINE
  5
7DD
100
AcDbEntity
  8
MECHANICAL1
100
AcDb2dPolyline
 66
     1
 10
0.0
 20
0.0
 30
0.0
 70
     1
 40
0.005
 41
0.005
 75
     8
  0
VERTEX
  5
7DE
100
AcDbEntity
  8
MECHANICAL1
100
AcDbVertex
100
AcDb2dVertex
 10
3.9975
 20
7.0
 30
0.0
 42
1.0
  0
VERTEX
  5
7DF
100
AcDbEntity
  8
MECHANICAL1
100
AcDbVertex
100
AcDb2dVertex
 10
4.0025
 20
7.0
 30
0.0
 42
1.0
  0
SEQEND
  5
7E0
100
AcDbEntity
  8
0
  0
POLYLINE
  5
7E1
100
AcDbEntity
  8
MECHANICAL1
100
AcDb2dPolyline
 66
     1
 10
0.0
 20
0.0
 30
0.0
 40
0.01
 41
0.01
 75
     8
  0
VERTEX
  5
7E2
100
AcDbEntity
  8
MECHANICAL1
100
AcDbVertex
100
AcDb2dVertex
 10
4.0
 20
8.465464
 30
0.0
  0
VERTEX
  5
7E3
100
AcDbEntity
  8
MECHANICAL1
100
AcDbVertex
100
AcDb2dVertex
 10
4.0
 20
9.679
 30
0.0
  0
SEQEND
  5
7E4
100
AcDbEntity
  8
0
  0
POLYLINE
  5
7E5
100
AcDbEntity
  8
MECHANICAL1
100
AcDb2dPolyline
 66
     1
 10
0.0
 20
0.0
 30
0.0
 70
     1
 40
0.005
 41
0.005
 75
     8
  0
VERTEX
  5
7E6
100
AcDbEntity
  8
MECHANICAL1
100
AcDbVertex
100
AcDb2dVertex
 10
3.9975
 20
8.465464
 30
0.0
 42
1.0
  0
VERTEX
  5
7E7
100
AcDbEntity
  8
MECHANICAL1
100
AcDbVertex
100
AcDb2dVertex
 10
4.0025
 20
8.465464
 30
0.0
 42
1.0
  0
SEQEND
  5
7E8
100
AcDbEntity
  8
0
  0
POLYLINE
  5
7E9
100
AcDbEntity
  8
MECHANICAL1
100
AcDb2dPolyline
 66
     1
 10
0.0
 20
0.0
 30
0.0
 70
     1
 40
0.005
 41
0.005
 75
     8
  0
VERTEX
  5
7EA
100
AcDbEntity
  8
MECHANICAL1
100
AcDbVertex
100
AcDb2dVertex
 10
3.9975
 20
9.679
 30
0.0
 42
1.0
  0
VERTEX
  5
7EB
100
AcDbEntity
  8
MECHANICAL1
100
AcDbVertex
100
AcDb2dVertex
 10
4.0025
 20
9.679
 30
0.0
 42
1.0
  0
SEQEND
  5
7EC
100
AcDbEntity
  8
0
  0
POLYLINE
  5
7ED
100
AcDbEntity
  8
MECHANICAL1
100
AcDb2dPolyline
 66
     1
 10
0.0
 20
0.0
 30
0.0
 40
0.01
 41
0.01
 75
     8
  0
VERTEX
  5
7EE
100
AcDbEntity
  8
MECHANICAL1
100
AcDbVertex
100
AcDb2dVertex
 10
4.0
 20
7.0
 30
0.0
  0
VERTEX
  5
7EF
100
AcDbEntity
  8
MECHANICAL1
100
AcDbVertex
100
AcDb2dVertex
 10
4.0
 20
8.213536
 30
0.0
  0
SEQEND
  5
7F0
100
AcDbEntity
  8
0
  0
POLYLINE
  5
7F1
100
AcDbEntity
  8
MECHANICAL1
100
AcDb2dPolyline
 66
     1
 10
0.0
 20
0.0
 30
0.0
 70
     1
 40
0.005
 41
0.005
 75
     8
  0
VERTEX
  5
7F2
100
AcDbEntity
  8
MECHANICAL1
100
AcDbVertex
100
AcDb2dVertex
 10
3.9975
 20
7.0
 30
0.0
 42
1.0
  0
VERTEX
  5
7F3
100
AcDbEntity
  8
MECHANICAL1
100
AcDbVertex
100
AcDb2dVertex
 10
4.0025
 20
7.0
 30
0.0
 42
1.0
  0
SEQEND
  5
7F4
100
AcDbEntity
  8
0
  0
POLYLINE
  5
7F5
100
AcDbEntity
  8
MECHANICAL1
100
AcDb2dPolyline
 66
     1
 10
0.0
 20
0.0
 30
0.0
 70
     1
 40
0.005
 41
0.005
 75
     8
  0
VERTEX
  5
7F6
100
AcDbEntity
  8
MECHANICAL1
100
AcDbVertex
100
AcDb2dVertex
 10
3.9975
 20
8.213536
 30
0.0
 42
1.0
  0
VERTEX
  5
7F7
100
AcDbEntity
  8
MECHANICAL1
100
AcDbVertex
100
AcDb2dVertex
 10
4.0025
 20
8.213536
 30
0.0
 42
1.0
  0
SEQEND
  5
7F8
100
AcDbEntity
  8
0
  0
POLYLINE
  5
7F9
100
AcDbEntity
  8
MECHANICAL1
100
AcDb2dPolyline
 66
     1
 10
0.0
 20
0.0
 30
0.0
 40
0.01
 41
0.01
 75
     8
  0
VERTEX
  5
7FA
100
AcDbEntity
  8
MECHANICAL1
100
AcDbVertex
100
AcDb2dVertex
 10
3.99
 20
7.0
 30
0.0
  0
VERTEX
  5
7FB
100
AcDbEntity
  8
MECHANICAL1
100
AcDbVertex
100
AcDb2dVertex
 10
4.01
 20
7.0
 30
0.0
  0
SEQEND
  5
7FC
100
AcDbEntity
  8
0
  0
POLYLINE
  5
7FD
100
AcDbEntity
  8
MECHANICAL1
100
AcDb2dPolyline
 66
     1
 10
0.0
 20
0.0
 30
0.0
 70
     1
 40
0.005
 41
0.005
 75
     8
  0
VERTEX
  5
7FE
100
AcDbEntity
  8
MECHANICAL1
100
AcDbVertex
100
AcDb2dVertex
 10
3.9875
 20
7.0
 30
0.0
 42
1.0
  0
VERTEX
  5
7FF
100
AcDbEntity
  8
MECHANICAL1
100
AcDbVertex
100
AcDb2dVertex
 10
3.9925
 20
7.0
 30
0.0
 42
1.0
  0
SEQEND
  5
800
100
AcDbEntity
  8
0
  0
POLYLINE
  5
801
100
AcDbEntity
  8
MECHANICAL1
100
AcDb2dPolyline
 66
     1
 10
0.0
 20
0.0
 30
0.0
 70
     1
 40
0.005
 41
0.005
 75
     8
  0
VERTEX
  5
802
100
AcDbEntity
  8
MECHANICAL1
100
AcDbVertex
100
AcDb2dVertex
 10
4.0075
 20
7.0
 30
0.0
 42
1.0
  0
VERTEX
  5
803
100
AcDbEntity
  8
MECHANICAL1
100
AcDbVertex
100
AcDb2dVertex
 10
4.0125
 20
7.0
 30
0.0
 42
1.0
  0
SEQEND
  5
804
100
AcDbEntity
  8
0
  0
POLYLINE
  5
805
100
AcDbEntity
  8
MECHANICAL1
100
AcDb2dPolyline
 66
     1
 10
0.0
 20
0.0
 30
0.0
 40
0.01
 41
0.01
 75
     8
  0
VERTEX
  5
806
100
AcDbEntity
  8
MECHANICAL1
100
AcDbVertex
100
AcDb2dVertex
 10
3.99
 20
4.011
 30
0.0
  0
VERTEX
  5
807
100
AcDbEntity
  8
MECHANICAL1
100
AcDbVertex
100
AcDb2dVertex
 10
4.01
 20
4.011
 30
0.0
  0
SEQEND
  5
808
100
AcDbEntity
  8
0
  0
POLYLINE
  5
809
100
AcDbEntity
  8
MECHANICAL1
100
AcDb2dPolyline
 66
     1
 10
0.0
 20
0.0
 30
0.0
 70
     1
 40
0.005
 41
0.005
 75
     8
  0
VERTEX
  5
80A
100
AcDbEntity
  8
MECHANICAL1
100
AcDbVertex
100
AcDb2dVertex
 10
3.9875
 20
4.011
 30
0.0
 42
1.0
  0
VERTEX
  5
80B
100
AcDbEntity
  8
MECHANICAL1
100
AcDbVertex
100
AcDb2dVertex
 10
3.9925
 20
4.011
 30
0.0
 42
1.0
  0
SEQEND
  5
80C
100
AcDbEntity
  8
0
  0
POLYLINE
  5
80D
100
AcDbEntity
  8
MECHANICAL1
100
AcDb2dPolyline
 66
     1
 10
0.0
 20
0.0
 30
0.0
 70
     1
 40
0.005
 41
0.005
 75
     8
  0
VERTEX
  5
80E
100
AcDbEntity
  8
MECHANICAL1
100
AcDbVertex
100
AcDb2dVertex
 10
4.0075
 20
4.011
 30
0.0
 42
1.0
  0
VERTEX
  5
80F
100
AcDbEntity
  8
MECHANICAL1
100
AcDbVertex
100
AcDb2dVertex
 10
4.0125
 20
4.011
 30
0.0
 42
1.0
  0
SEQEND
  5
810
100
AcDbEntity
  8
0
  0
POLYLINE
  5
811
100
AcDbEntity
  8
MECHANICAL1
100
AcDb2dPolyline
 66
     1
 10
0.0
 20
0.0
 30
0.0
 40
0.01
 41
0.01
 75
     8
  0
VERTEX
  5
812
100
AcDbEntity
  8
MECHANICAL1
100
AcDbVertex
100
AcDb2dVertex
 10
4.0
 20
7.0
 30
0.0
  0
VERTEX
  5
813
100
AcDbEntity
  8
MECHANICAL1
100
AcDbVertex
100
AcDb2dVertex
 10
4.02
 20
6.94
 30
0.0
  0
SEQEND
  5
814
100
AcDbEntity
  8
0
  0
POLYLINE
  5
815
100
AcDbEntity
  8
MECHANICAL1
100
AcDb2dPolyline
 66
     1
 10
0.0
 20
0.0
 30
0.0
 70
     1
 40
0.005
 41
0.005
 75
     8
  0
VERTEX
  5
816
100
AcDbEntity
  8
MECHANICAL1
100
AcDbVertex
100
AcDb2dVertex
 10
3.9975
 20
7.0
 30
0.0
 42
1.0
  0
VERTEX
  5
817
100
AcDbEntity
  8
MECHANICAL1
100
AcDbVertex
100
AcDb2dVertex
 10
4.0025
 20
7.0
 30
0.0
 42
1.0
  0
SEQEND
  5
818
100
AcDbEntity
  8
0
  0
POLYLINE
  5
819
100
AcDbEntity
  8
MECHANICAL1
100
AcDb2dPolyline
 66
     1
 10
0.0
 20
0.0
 30
0.0
 70
     1
 40
0.005
 41
0.005
 75
     8
  0
VERTEX
  5
81A
100
AcDbEntity
  8
MECHANICAL1
100
AcDbVertex
100
AcDb2dVertex
 10
4.0175
 20
6.94
 30
0.0
 42
1.0
  0
VERTEX
  5
81B
100
AcDbEntity
  8
MECHANICAL1
100
AcDbVertex
100
AcDb2dVertex
 10
4.0225
 20
6.94
 30
0.0
 42
1.0
  0
SEQEND
  5
81C
100
AcDbEntity
  8
0
  0
POLYLINE
  5
81D
100
AcDbEntity
  8
MECHANICAL1
100
AcDb2dPolyline
 66
     1
 10
0.0
 20
0.0
 30
0.0
 40
0.01
 41
0.01
 75
     8
  0
VERTEX
  5
81E
100
AcDbEntity
  8
MECHANICAL1
100
AcDbVertex
100
AcDb2dVertex
 10
3.98
 20
6.94
 30
0.0
  0
VERTEX
  5
81F
100
AcDbEntity
  8
MECHANICAL1
100
AcDbVertex
100
AcDb2dVertex
 10
4.0
 20
7.0
 30
0.0
  0
SEQEND
  5
820
100
AcDbEntity
  8
0
  0
POLYLINE
  5
821
100
AcDbEntity
  8
MECHANICAL1
100
AcDb2dPolyline
 66
     1
 10
0.0
 20
0.0
 30
0.0
 70
     1
 40
0.005
 41
0.005
 75
     8
  0
VERTEX
  5
822
100
AcDbEntity
  8
MECHANICAL1
100
AcDbVertex
100
AcDb2dVertex
 10
3.9775
 20
6.94
 30
0.0
 42
1.0
  0
VERTEX
  5
823
100
AcDbEntity
  8
MECHANICAL1
100
AcDbVertex
100
AcDb2dVertex
 10
3.9825
 20
6.94
 30
0.0
 42
1.0
  0
SEQEND
  5
824
100
AcDbEntity
  8
0
  0
POLYLINE
  5
825
100
AcDbEntity
  8
MECHANICAL1
100
AcDb2dPolyline
 66
     1
 10
0.0
 20
0.0
 30
0.0
 70
     1
 40
0.005
 41
0.005
 75
     8
  0
VERTEX
  5
826
100
AcDbEntity
  8
MECHANICAL1
100
AcDbVertex
100
AcDb2dVertex
 10
3.9975
 20
7.0
 30
0.0
 42
1.0
  0
VERTEX
  5
827
100
AcDbEntity
  8
MECHANICAL1
100
AcDbVertex
100
AcDb2dVertex
 10
4.0025
 20
7.0
 30
0.0
 42
1.0
  0
SEQEND
  5
828
100
AcDbEntity
  8
0
  0
POLYLINE
  5
829
100
AcDbEntity
  8
MECHANICAL1
100
AcDb2dPolyline
 66
     1
 10
0.0
 20
0.0
 30
0.0
 40
0.01
 41
0.01
 75
     8
  0
VERTEX
  5
82A
100
AcDbEntity
  8
MECHANICAL1
100
AcDbVertex
100
AcDb2dVertex
 10
4.0
 20
4.011
 30
0.0
  0
VERTEX
  5
82B
100
AcDbEntity
  8
MECHANICAL1
100
AcDbVertex
100
AcDb2dVertex
 10
4.02
 20
4.071
 30
0.0
  0
SEQEND
  5
82C
100
AcDbEntity
  8
0
  0
POLYLINE
  5
82D
100
AcDbEntity
  8
MECHANICAL1
100
AcDb2dPolyline
 66
     1
 10
0.0
 20
0.0
 30
0.0
 70
     1
 40
0.005
 41
0.005
 75
     8
  0
VERTEX
  5
82E
100
AcDbEntity
  8
MECHANICAL1
100
AcDbVertex
100
AcDb2dVertex
 10
3.9975
 20
4.011
 30
0.0
 42
1.0
  0
VERTEX
  5
82F
100
AcDbEntity
  8
MECHANICAL1
100
AcDbVertex
100
AcDb2dVertex
 10
4.0025
 20
4.011
 30
0.0
 42
1.0
  0
SEQEND
  5
830
100
AcDbEntity
  8
0
  0
POLYLINE
  5
831
100
AcDbEntity
  8
MECHANICAL1
100
AcDb2dPolyline
 66
     1
 10
0.0
 20
0.0
 30
0.0
 70
     1
 40
0.005
 41
0.005
 75
     8
  0
VERTEX
  5
832
100
AcDbEntity
  8
MECHANICAL1
100
AcDbVertex
100
AcDb2dVertex
 10
4.0175
 20
4.071
 30
0.0
 42
1.0
  0
VERTEX
  5
833
100
AcDbEntity
  8
MECHANICAL1
100
AcDbVertex
100
AcDb2dVertex
 10
4.0225
 20
4.071
 30
0.0
 42
1.0
  0
SEQEND
  5
834
100
AcDbEntity
  8
0
  0
POLYLINE
  5
835
100
AcDbEntity
  8
MECHANICAL1
100
AcDb2dPolyline
 66
     1
 10
0.0
 20
0.0
 30
0.0
 40
0.01
 41
0.01
 75
     8
  0
VERTEX
  5
836
100
AcDbEntity
  8
MECHANICAL1
100
AcDbVertex
100
AcDb2dVertex
 10
3.98
 20
4.071
 30
0.0
  0
VERTEX
  5
837
100
AcDbEntity
  8
MECHANICAL1
100
AcDbVertex
100
AcDb2dVertex
 10
4.0
 20
4.011
 30
0.0
  0
SEQEND
  5
838
100
AcDbEntity
  8
0
  0
POLYLINE
  5
839
100
AcDbEntity
  8
MECHANICAL1
100
AcDb2dPolyline
 66
     1
 10
0.0
 20
0.0
 30
0.0
 70
     1
 40
0.005
 41
0.005
 75
     8
  0
VERTEX
  5
83A
100
AcDbEntity
  8
MECHANICAL1
100
AcDbVertex
100
AcDb2dVertex
 10
3.9775
 20
4.071
 30
0.0
 42
1.0
  0
VERTEX
  5
83B
100
AcDbEntity
  8
MECHANICAL1
100
AcDbVertex
100
AcDb2dVertex
 10
3.9825
 20
4.071
 30
0.0
 42
1.0
  0
SEQEND
  5
83C
100
AcDbEntity
  8
0
  0
POLYLINE
  5
83D
100
AcDbEntity
  8
MECHANICAL1
100
AcDb2dPolyline
 66
     1
 10
0.0
 20
0.0
 30
0.0
 70
     1
 40
0.005
 41
0.005
 75
     8
  0
VERTEX
  5
83E
100
AcDbEntity
  8
MECHANICAL1
100
AcDbVertex
100
AcDb2dVertex
 10
3.9975
 20
4.011
 30
0.0
 42
1.0
  0
VERTEX
  5
83F
100
AcDbEntity
  8
MECHANICAL1
100
AcDbVertex
100
AcDb2dVertex
 10
4.0025
 20
4.011
 30
0.0
 42
1.0
  0
SEQEND
  5
840
100
AcDbEntity
  8
0
  0
POLYLINE
  5
841
100
AcDbEntity
  8
MECHANICAL1
100
AcDb2dPolyline
 66
     1
 10
0.0
 20
0.0
 30
0.0
 40
0.01
 41
0.01
 75
     8
  0
VERTEX
  5
842
100
AcDbEntity
  8
MECHANICAL1
100
AcDbVertex
100
AcDb2dVertex
 10
4.0
 20
5.631464
 30
0.0
  0
VERTEX
  5
843
100
AcDbEntity
  8
MECHANICAL1
100
AcDbVertex
100
AcDb2dVertex
 10
4.0
 20
7.0
 30
0.0
  0
SEQEND
  5
844
100
AcDbEntity
  8
0
  0
POLYLINE
  5
845
100
AcDbEntity
  8
MECHANICAL1
100
AcDb2dPolyline
 66
     1
 10
0.0
 20
0.0
 30
0.0
 70
     1
 40
0.005
 41
0.005
 75
     8
  0
VERTEX
  5
846
100
AcDbEntity
  8
MECHANICAL1
100
AcDbVertex
100
AcDb2dVertex
 10
3.9975
 20
5.631464
 30
0.0
 42
1.0
  0
VERTEX
  5
847
100
AcDbEntity
  8
MECHANICAL1
100
AcDbVertex
100
AcDb2dVertex
 10
4.0025
 20
5.631464
 30
0.0
 42
1.0
  0
SEQEND
  5
848
100
AcDbEntity
  8
0
  0
POLYLINE
  5
849
100
AcDbEntity
  8
MECHANICAL1
100
AcDb2dPolyline
 66
     1
 10
0.0
 20
0.0
 30
0.0
 70
     1
 40
0.005
 41
0.005
 75
     8
  0
VERTEX
  5
84A
100
AcDbEntity
  8
MECHANICAL1
100
AcDbVertex
100
AcDb2dVertex
 10
3.9975
 20
7.0
 30
0.0
 42
1.0
  0
VERTEX
  5
84B
100
AcDbEntity
  8
MECHANICAL1
100
AcDbVertex
100
AcDb2dVertex
 10
4.0025
 20
7.0
 30
0.0
 42
1.0
  0
SEQEND
  5
84C
100
AcDbEntity
  8
0
  0
POLYLINE
  5
84D
100
AcDbEntity
  8
MECHANICAL1
100
AcDb2dPolyline
 66
     1
 10
0.0
 20
0.0
 30
0.0
 40
0.01
 41
0.01
 75
     8
  0
VERTEX
  5
84E
100
AcDbEntity
  8
MECHANICAL1
100
AcDbVertex
100
AcDb2dVertex
 10
4.0
 20
4.011
 30
0.0
  0
VERTEX
  5
84F
100
AcDbEntity
  8
MECHANICAL1
100
AcDbVertex
100
AcDb2dVertex
 10
4.0
 20
5.379536
 30
0.0
  0
SEQEND
  5
850
100
AcDbEntity
  8
0
  0
POLYLINE
  5
851
100
AcDbEntity
  8
MECHANICAL1
100
AcDb2dPolyline
 66
     1
 10
0.0
 20
0.0
 30
0.0
 70
     1
 40
0.005
 41
0.005
 75
     8
  0
VERTEX
  5
852
100
AcDbEntity
  8
MECHANICAL1
100
AcDbVertex
100
AcDb2dVertex
 10
3.9975
 20
4.011
 30
0.0
 42
1.0
  0
VERTEX
  5
853
100
AcDbEntity
  8
MECHANICAL1
100
AcDbVertex
100
AcDb2dVertex
 10
4.0025
 20
4.011
 30
0.0
 42
1.0
  0
SEQEND
  5
854
100
AcDbEntity
  8
0
  0
POLYLINE
  5
855
100
AcDbEntity
  8
MECHANICAL1
100
AcDb2dPolyline
 66
     1
 10
0.0
 20
0.0
 30
0.0
 70
     1
 40
0.005
 41
0.005
 75
     8
  0
VERTEX
  5
856
100
AcDbEntity
  8
MECHANICAL1
100
AcDbVertex
100
AcDb2dVertex
 10
3.9975
 20
5.379536
 30
0.0
 42
1.0
  0
VERTEX
  5
857
100
AcDbEntity
  8
MECHANICAL1
100
AcDbVertex
100
AcDb2dVertex
 10
4.0025
 20
5.379536
 30
0.0
 42
1.0
  0
SEQEND
  5
858
100
AcDbEntity
  8
0
  0
POLYLINE
  5
859
100
AcDbEntity
  8
MECHANICAL1
100
AcDb2dPolyline
 66
     1
 10
0.0
 20
0.0
 30
0.0
 40
0.01
 41
0.01
 75
     8
  0
VERTEX
  5
85A
100
AcDbEntity
  8
MECHANICAL1
100
AcDbVertex
100
AcDb2dVertex
 10
8.0
 20
3.263
 30
0.0
  0
VERTEX
  5
85B
100
AcDbEntity
  8
MECHANICAL1
100
AcDbVertex
100
AcDb2dVertex
 10
8.0
 20
3.283
 30
0.0
  0
SEQEND
  5
85C
100
AcDbEntity
  8
0
  0
POLYLINE
  5
85D
100
AcDbEntity
  8
MECHANICAL1
100
AcDb2dPolyline
 66
     1
 10
0.0
 20
0.0
 30
0.0
 70
     1
 40
0.005
 41
0.005
 75
     8
  0
VERTEX
  5
85E
100
AcDbEntity
  8
MECHANICAL1
100
AcDbVertex
100
AcDb2dVertex
 10
7.9975
 20
3.263
 30
0.0
 42
1.0
  0
VERTEX
  5
85F
100
AcDbEntity
  8
MECHANICAL1
100
AcDbVertex
100
AcDb2dVertex
 10
8.0025
 20
3.263
 30
0.0
 42
1.0
  0
SEQEND
  5
860
100
AcDbEntity
  8
0
  0
POLYLINE
  5
861
100
AcDbEntity
  8
MECHANICAL1
100
AcDb2dPolyline
 66
     1
 10
0.0
 20
0.0
 30
0.0
 70
     1
 40
0.005
 41
0.005
 75
     8
  0
VERTEX
  5
862
100
AcDbEntity
  8
MECHANICAL1
100
AcDbVertex
100
AcDb2dVertex
 10
7.9975
 20
3.283
 30
0.0
 42
1.0
  0
VERTEX
  5
863
100
AcDbEntity
  8
MECHANICAL1
100
AcDbVertex
100
AcDb2dVertex
 10
8.0025
 20
3.283
 30
0.0
 42
1.0
  0
SEQEND
  5
864
100
AcDbEntity
  8
0
  0
POLYLINE
  5
865
100
AcDbEntity
  8
MECHANICAL1
100
AcDb2dPolyline
 66
     1
 10
0.0
 20
0.0
 30
0.0
 40
0.01
 41
0.01
 75
     8
  0
VERTEX
  5
866
100
AcDbEntity
  8
MECHANICAL1
100
AcDbVertex
100
AcDb2dVertex
 10
4.851
 20
3.263
 30
0.0
  0
VERTEX
  5
867
100
AcDbEntity
  8
MECHANICAL1
100
AcDbVertex
100
AcDb2dVertex
 10
4.851
 20
3.283
 30
0.0
  0
SEQEND
  5
868
100
AcDbEntity
  8
0
  0
POLYLINE
  5
869
100
AcDbEntity
  8
MECHANICAL1
100
AcDb2dPolyline
 66
     1
 10
0.0
 20
0.0
 30
0.0
 70
     1
 40
0.005
 41
0.005
 75
     8
  0
VERTEX
  5
86A
100
AcDbEntity
  8
MECHANICAL1
100
AcDbVertex
100
AcDb2dVertex
 10
4.8485
 20
3.263
 30
0.0
 42
1.0
  0
VERTEX
  5
86B
100
AcDbEntity
  8
MECHANICAL1
100
AcDbVertex
100
AcDb2dVertex
 10
4.8535
 20
3.263
 30
0.0
 42
1.0
  0
SEQEND
  5
86C
100
AcDbEntity
  8
0
  0
POLYLINE
  5
86D
100
AcDbEntity
  8
MECHANICAL1
100
AcDb2dPolyline
 66
     1
 10
0.0
 20
0.0
 30
0.0
 70
     1
 40
0.005
 41
0.005
 75
     8
  0
VERTEX
  5
86E
100
AcDbEntity
  8
MECHANICAL1
100
AcDbVertex
100
AcDb2dVertex
 10
4.8485
 20
3.283
 30
0.0
 42
1.0
  0
VERTEX
  5
86F
100
AcDbEntity
  8
MECHANICAL1
100
AcDbVertex
100
AcDb2dVertex
 10
4.8535
 20
3.283
 30
0.0
 42
1.0
  0
SEQEND
  5
870
100
AcDbEntity
  8
0
  0
POLYLINE
  5
871
100
AcDbEntity
  8
MECHANICAL1
100
AcDb2dPolyline
 66
     1
 10
0.0
 20
0.0
 30
0.0
 40
0.01
 41
0.01
 75
     8
  0
VERTEX
  5
872
100
AcDbEntity
  8
MECHANICAL1
100
AcDbVertex
100
AcDb2dVertex
 10
7.94
 20
3.253
 30
0.0
  0
VERTEX
  5
873
100
AcDbEntity
  8
MECHANICAL1
100
AcDbVertex
100
AcDb2dVertex
 10
8.0
 20
3.273
 30
0.0
  0
SEQEND
  5
874
100
AcDbEntity
  8
0
  0
POLYLINE
  5
875
100
AcDbEntity
  8
MECHANICAL1
100
AcDb2dPolyline
 66
     1
 10
0.0
 20
0.0
 30
0.0
 70
     1
 40
0.005
 41
0.005
 75
     8
  0
VERTEX
  5
876
100
AcDbEntity
  8
MECHANICAL1
100
AcDbVertex
100
AcDb2dVertex
 10
7.9375
 20
3.253
 30
0.0
 42
1.0
  0
VERTEX
  5
877
100
AcDbEntity
  8
MECHANICAL1
100
AcDbVertex
100
AcDb2dVertex
 10
7.9425
 20
3.253
 30
0.0
 42
1.0
  0
SEQEND
  5
878
100
AcDbEntity
  8
0
  0
POLYLINE
  5
879
100
AcDbEntity
  8
MECHANICAL1
100
AcDb2dPolyline
 66
     1
 10
0.0
 20
0.0
 30
0.0
 70
     1
 40
0.005
 41
0.005
 75
     8
  0
VERTEX
  5
87A
100
AcDbEntity
  8
MECHANICAL1
100
AcDbVertex
100
AcDb2dVertex
 10
7.9975
 20
3.273
 30
0.0
 42
1.0
  0
VERTEX
  5
87B
100
AcDbEntity
  8
MECHANICAL1
100
AcDbVertex
100
AcDb2dVertex
 10
8.0025
 20
3.273
 30
0.0
 42
1.0
  0
SEQEND
  5
87C
100
AcDbEntity
  8
0
  0
POLYLINE
  5
87D
100
AcDbEntity
  8
MECHANICAL1
100
AcDb2dPolyline
 66
     1
 10
0.0
 20
0.0
 30
0.0
 40
0.01
 41
0.01
 75
     8
  0
VERTEX
  5
87E
100
AcDbEntity
  8
MECHANICAL1
100
AcDbVertex
100
AcDb2dVertex
 10
7.94
 20
3.293
 30
0.0
  0
VERTEX
  5
87F
100
AcDbEntity
  8
MECHANICAL1
100
AcDbVertex
100
AcDb2dVertex
 10
8.0
 20
3.273
 30
0.0
  0
SEQEND
  5
880
100
AcDbEntity
  8
0
  0
POLYLINE
  5
881
100
AcDbEntity
  8
MECHANICAL1
100
AcDb2dPolyline
 66
     1
 10
0.0
 20
0.0
 30
0.0
 70
     1
 40
0.005
 41
0.005
 75
     8
  0
VERTEX
  5
882
100
AcDbEntity
  8
MECHANICAL1
100
AcDbVertex
100
AcDb2dVertex
 10
7.9375
 20
3.293
 30
0.0
 42
1.0
  0
VERTEX
  5
883
100
AcDbEntity
  8
MECHANICAL1
100
AcDbVertex
100
AcDb2dVertex
 10
7.9425
 20
3.293
 30
0.0
 42
1.0
  0
SEQEND
  5
884
100
AcDbEntity
  8
0
  0
POLYLINE
  5
885
100
AcDbEntity
  8
MECHANICAL1
100
AcDb2dPolyline
 66
     1
 10
0.0
 20
0.0
 30
0.0
 70
     1
 40
0.005
 41
0.005
 75
     8
  0
VERTEX
  5
886
100
AcDbEntity
  8
MECHANICAL1
100
AcDbVertex
100
AcDb2dVertex
 10
7.9975
 20
3.273
 30
0.0
 42
1.0
  0
VERTEX
  5
887
100
AcDbEntity
  8
MECHANICAL1
100
AcDbVertex
100
AcDb2dVertex
 10
8.0025
 20
3.273
 30
0.0
 42
1.0
  0
SEQEND
  5
888
100
AcDbEntity
  8
0
  0
POLYLINE
  5
889
100
AcDbEntity
  8
MECHANICAL1
100
AcDb2dPolyline
 66
     1
 10
0.0
 20
0.0
 30
0.0
 40
0.01
 41
0.01
 75
     8
  0
VERTEX
  5
88A
100
AcDbEntity
  8
MECHANICAL1
100
AcDbVertex
100
AcDb2dVertex
 10
4.851
 20
3.273
 30
0.0
  0
VERTEX
  5
88B
100
AcDbEntity
  8
MECHANICAL1
100
AcDbVertex
100
AcDb2dVertex
 10
4.911
 20
3.253
 30
0.0
  0
SEQEND
  5
88C
100
AcDbEntity
  8
0
  0
POLYLINE
  5
88D
100
AcDbEntity
  8
MECHANICAL1
100
AcDb2dPolyline
 66
     1
 10
0.0
 20
0.0
 30
0.0
 70
     1
 40
0.005
 41
0.005
 75
     8
  0
VERTEX
  5
88E
100
AcDbEntity
  8
MECHANICAL1
100
AcDbVertex
100
AcDb2dVertex
 10
4.8485
 20
3.273
 30
0.0
 42
1.0
  0
VERTEX
  5
88F
100
AcDbEntity
  8
MECHANICAL1
100
AcDbVertex
100
AcDb2dVertex
 10
4.8535
 20
3.273
 30
0.0
 42
1.0
  0
SEQEND
  5
890
100
AcDbEntity
  8
0
  0
POLYLINE
  5
891
100
AcDbEntity
  8
MECHANICAL1
100
AcDb2dPolyline
 66
     1
 10
0.0
 20
0.0
 30
0.0
 70
     1
 40
0.005
 41
0.005
 75
     8
  0
VERTEX
  5
892
100
AcDbEntity
  8
MECHANICAL1
100
AcDbVertex
100
AcDb2dVertex
 10
4.9085
 20
3.253
 30
0.0
 42
1.0
  0
VERTEX
  5
893
100
AcDbEntity
  8
MECHANICAL1
100
AcDbVertex
100
AcDb2dVertex
 10
4.9135
 20
3.253
 30
0.0
 42
1.0
  0
SEQEND
  5
894
100
AcDbEntity
  8
0
  0
POLYLINE
  5
895
100
AcDbEntity
  8
MECHANICAL1
100
AcDb2dPolyline
 66
     1
 10
0.0
 20
0.0
 30
0.0
 40
0.01
 41
0.01
 75
     8
  0
VERTEX
  5
896
100
AcDbEntity
  8
MECHANICAL1
100
AcDbVertex
100
AcDb2dVertex
 10
4.851
 20
3.273
 30
0.0
  0
VERTEX
  5
897
100
AcDbEntity
  8
MECHANICAL1
100
AcDbVertex
100
AcDb2dVertex
 10
4.911
 20
3.293
 30
0.0
  0
SEQEND
  5
898
100
AcDbEntity
  8
0
  0
POLYLINE
  5
899
100
AcDbEntity
  8
MECHANICAL1
100
AcDb2dPolyline
 66
     1
 10
0.0
 20
0.0
 30
0.0
 70
     1
 40
0.005
 41
0.005
 75
     8
  0
VERTEX
  5
89A
100
AcDbEntity
  8
MECHANICAL1
100
AcDbVertex
100
AcDb2dVertex
 10
4.8485
 20
3.273
 30
0.0
 42
1.0
  0
VERTEX
  5
89B
100
AcDbEntity
  8
MECHANICAL1
100
AcDbVertex
100
AcDb2dVertex
 10
4.8535
 20
3.273
 30
0.0
 42
1.0
  0
SEQEND
  5
89C
100
AcDbEntity
  8
0
  0
POLYLINE
  5
89D
100
AcDbEntity
  8
MECHANICAL1
100
AcDb2dPolyline
 66
     1
 10
0.0
 20
0.0
 30
0.0
 70
     1
 40
0.005
 41
0.005
 75
     8
  0
VERTEX
  5
89E
100
AcDbEntity
  8
MECHANICAL1
100
AcDbVertex
100
AcDb2dVertex
 10
4.9085
 20
3.293
 30
0.0
 42
1.0
  0
VERTEX
  5
89F
100
AcDbEntity
  8
MECHANICAL1
100
AcDbVertex
100
AcDb2dVertex
 10
4.9135
 20
3.293
 30
0.0
 42
1.0
  0
SEQEND
  5
8A0
100
AcDbEntity
  8
0
  0
POLYLINE
  5
8A1
100
AcDbEntity
  8
MECHANICAL1
100
AcDb2dPolyline
 66
     1
 10
0.0
 20
0.0
 30
0.0
 40
0.01
 41
0.01
 75
     8
  0
VERTEX
  5
8A2
100
AcDbEntity
  8
MECHANICAL1
100
AcDbVertex
100
AcDb2dVertex
 10
6.546466
 20
3.273
 30
0.0
  0
VERTEX
  5
8A3
100
AcDbEntity
  8
MECHANICAL1
100
AcDbVertex
100
AcDb2dVertex
 10
8.0
 20
3.273
 30
0.0
  0
SEQEND
  5
8A4
100
AcDbEntity
  8
0
  0
POLYLINE
  5
8A5
100
AcDbEntity
  8
MECHANICAL1
100
AcDb2dPolyline
 66
     1
 10
0.0
 20
0.0
 30
0.0
 70
     1
 40
0.005
 41
0.005
 75
     8
  0
VERTEX
  5
8A6
100
AcDbEntity
  8
MECHANICAL1
100
AcDbVertex
100
AcDb2dVertex
 10
6.543966
 20
3.273
 30
0.0
 42
1.0
  0
VERTEX
  5
8A7
100
AcDbEntity
  8
MECHANICAL1
100
AcDbVertex
100
AcDb2dVertex
 10
6.548966
 20
3.273
 30
0.0
 42
1.0
  0
SEQEND
  5
8A8
100
AcDbEntity
  8
0
  0
POLYLINE
  5
8A9
100
AcDbEntity
  8
MECHANICAL1
100
AcDb2dPolyline
 66
     1
 10
0.0
 20
0.0
 30
0.0
 70
     1
 40
0.005
 41
0.005
 75
     8
  0
VERTEX
  5
8AA
100
AcDbEntity
  8
MECHANICAL1
100
AcDbVertex
100
AcDb2dVertex
 10
7.9975
 20
3.273
 30
0.0
 42
1.0
  0
VERTEX
  5
8AB
100
AcDbEntity
  8
MECHANICAL1
100
AcDbVertex
100
AcDb2dVertex
 10
8.0025
 20
3.273
 30
0.0
 42
1.0
  0
SEQEND
  5
8AC
100
AcDbEntity
  8
0
  0
POLYLINE
  5
8AD
100
AcDbEntity
  8
MECHANICAL1
100
AcDb2dPolyline
 66
     1
 10
0.0
 20
0.0
 30
0.0
 40
0.01
 41
0.01
 75
     8
  0
VERTEX
  5
8AE
100
AcDbEntity
  8
MECHANICAL1
100
AcDbVertex
100
AcDb2dVertex
 10
4.851
 20
3.273
 30
0.0
  0
VERTEX
  5
8AF
100
AcDbEntity
  8
MECHANICAL1
100
AcDbVertex
100
AcDb2dVertex
 10
6.304534
 20
3.273
 30
0.0
  0
SEQEND
  5
8B0
100
AcDbEntity
  8
0
  0
POLYLINE
  5
8B1
100
AcDbEntity
  8
MECHANICAL1
100
AcDb2dPolyline
 66
     1
 10
0.0
 20
0.0
 30
0.0
 70
     1
 40
0.005
 41
0.005
 75
     8
  0
VERTEX
  5
8B2
100
AcDbEntity
  8
MECHANICAL1
100
AcDbVertex
100
AcDb2dVertex
 10
4.8485
 20
3.273
 30
0.0
 42
1.0
  0
VERTEX
  5
8B3
100
AcDbEntity
  8
MECHANICAL1
100
AcDbVertex
100
AcDb2dVertex
 10
4.8535
 20
3.273
 30
0.0
 42
1.0
  0
SEQEND
  5
8B4
100
AcDbEntity
  8
0
  0
POLYLINE
  5
8B5
100
AcDbEntity
  8
MECHANICAL1
100
AcDb2dPolyline
 66
     1
 10
0.0
 20
0.0
 30
0.0
 70
     1
 40
0.005
 41
0.005
 75
     8
  0
VERTEX
  5
8B6
100
AcDbEntity
  8
MECHANICAL1
100
AcDbVertex
100
AcDb2dVertex
 10
6.302034
 20
3.273
 30
0.0
 42
1.0
  0
VERTEX
  5
8B7
100
AcDbEntity
  8
MECHANICAL1
100
AcDbVertex
100
AcDb2dVertex
 10
6.307034
 20
3.273
 30
0.0
 42
1.0
  0
SEQEND
  5
8B8
100
AcDbEntity
  8
0
  0
POLYLINE
  5
8B9
100
AcDbEntity
  8
MECHANICAL1
100
AcDb2dPolyline
 66
     1
 10
0.0
 20
0.0
 30
0.0
 40
0.01
 41
0.01
 75
     8
  0
VERTEX
  5
8BA
100
AcDbEntity
  8
MECHANICAL1
100
AcDbVertex
100
AcDb2dVertex
 10
9.121991
 20
3.679
 30
0.0
  0
VERTEX
  5
8BB
100
AcDbEntity
  8
MECHANICAL1
100
AcDbVertex
100
AcDb2dVertex
 10
9.122009
 20
3.659
 30
0.0
  0
SEQEND
  5
8BC
100
AcDbEntity
  8
0
  0
POLYLINE
  5
8BD
100
AcDbEntity
  8
MECHANICAL1
100
AcDb2dPolyline
 66
     1
 10
0.0
 20
0.0
 30
0.0
 70
     1
 40
0.005
 41
0.005
 75
     8
  0
VERTEX
  5
8BE
100
AcDbEntity
  8
MECHANICAL1
100
AcDbVertex
100
AcDb2dVertex
 10
9.119491
 20
3.679
 30
0.0
 42
1.0
  0
VERTEX
  5
8BF
100
AcDbEntity
  8
MECHANICAL1
100
AcDbVertex
100
AcDb2dVertex
 10
9.124491
 20
3.679
 30
0.0
 42
1.0
  0
SEQEND
  5
8C0
100
AcDbEntity
  8
0
  0
POLYLINE
  5
8C1
100
AcDbEntity
  8
MECHANICAL1
100
AcDb2dPolyline
 66
     1
 10
0.0
 20
0.0
 30
0.0
 70
     1
 40
0.005
 41
0.005
 75
     8
  0
VERTEX
  5
8C2
100
AcDbEntity
  8
MECHANICAL1
100
AcDbVertex
100
AcDb2dVertex
 10
9.119509
 20
3.659
 30
0.0
 42
1.0
  0
VERTEX
  5
8C3
100
AcDbEntity
  8
MECHANICAL1
100
AcDbVertex
100
AcDb2dVertex
 10
9.124509
 20
3.659
 30
0.0
 42
1.0
  0
SEQEND
  5
8C4
100
AcDbEntity
  8
0
  0
POLYLINE
  5
8C5
100
AcDbEntity
  8
MECHANICAL1
100
AcDb2dPolyline
 66
     1
 10
0.0
 20
0.0
 30
0.0
 40
0.01
 41
0.01
 75
     8
  0
VERTEX
  5
8C6
100
AcDbEntity
  8
MECHANICAL1
100
AcDbVertex
100
AcDb2dVertex
 10
7.999991
 20
3.678
 30
0.0
  0
VERTEX
  5
8C7
100
AcDbEntity
  8
MECHANICAL1
100
AcDbVertex
100
AcDb2dVertex
 10
8.000009
 20
3.658
 30
0.0
  0
SEQEND
  5
8C8
100
AcDbEntity
  8
0
  0
POLYLINE
  5
8C9
100
AcDbEntity
  8
MECHANICAL1
100
AcDb2dPolyline
 66
     1
 10
0.0
 20
0.0
 30
0.0
 70
     1
 40
0.005
 41
0.005
 75
     8
  0
VERTEX
  5
8CA
100
AcDbEntity
  8
MECHANICAL1
100
AcDbVertex
100
AcDb2dVertex
 10
7.997491
 20
3.678
 30
0.0
 42
1.0
  0
VERTEX
  5
8CB
100
AcDbEntity
  8
MECHANICAL1
100
AcDbVertex
100
AcDb2dVertex
 10
8.002491
 20
3.678
 30
0.0
 42
1.0
  0
SEQEND
  5
8CC
100
AcDbEntity
  8
0
  0
POLYLINE
  5
8CD
100
AcDbEntity
  8
MECHANICAL1
100
AcDb2dPolyline
 66
     1
 10
0.0
 20
0.0
 30
0.0
 70
     1
 40
0.005
 41
0.005
 75
     8
  0
VERTEX
  5
8CE
100
AcDbEntity
  8
MECHANICAL1
100
AcDbVertex
100
AcDb2dVertex
 10
7.997509
 20
3.658
 30
0.0
 42
1.0
  0
VERTEX
  5
8CF
100
AcDbEntity
  8
MECHANICAL1
100
AcDbVertex
100
AcDb2dVertex
 10
8.002509
 20
3.658
 30
0.0
 42
1.0
  0
SEQEND
  5
8D0
100
AcDbEntity
  8
0
  0
POLYLINE
  5
8D1
100
AcDbEntity
  8
MECHANICAL1
100
AcDb2dPolyline
 66
     1
 10
0.0
 20
0.0
 30
0.0
 40
0.01
 41
0.01
 75
     8
  0
VERTEX
  5
8D2
100
AcDbEntity
  8
MECHANICAL1
100
AcDbVertex
100
AcDb2dVertex
 10
9.062018
 20
3.648947
 30
0.0
  0
VERTEX
  5
8D3
100
AcDbEntity
  8
MECHANICAL1
100
AcDbVertex
100
AcDb2dVertex
 10
9.122
 20
3.669
 30
0.0
  0
SEQEND
  5
8D4
100
AcDbEntity
  8
0
  0
POLYLINE
  5
8D5
100
AcDbEntity
  8
MECHANICAL1
100
AcDb2dPolyline
 66
     1
 10
0.0
 20
0.0
 30
0.0
 70
     1
 40
0.005
 41
0.005
 75
     8
  0
VERTEX
  5
8D6
100
AcDbEntity
  8
MECHANICAL1
100
AcDbVertex
100
AcDb2dVertex
 10
9.059518
 20
3.648947
 30
0.0
 42
1.0
  0
VERTEX
  5
8D7
100
AcDbEntity
  8
MECHANICAL1
100
AcDbVertex
100
AcDb2dVertex
 10
9.064518
 20
3.648947
 30
0.0
 42
1.0
  0
SEQEND
  5
8D8
100
AcDbEntity
  8
0
  0
POLYLINE
  5
8D9
100
AcDbEntity
  8
MECHANICAL1
100
AcDb2dPolyline
 66
     1
 10
0.0
 20
0.0
 30
0.0
 70
     1
 40
0.005
 41
0.005
 75
     8
  0
VERTEX
  5
8DA
100
AcDbEntity
  8
MECHANICAL1
100
AcDbVertex
100
AcDb2dVertex
 10
9.1195
 20
3.669
 30
0.0
 42
1.0
  0
VERTEX
  5
8DB
100
AcDbEntity
  8
MECHANICAL1
100
AcDbVertex
100
AcDb2dVertex
 10
9.1245
 20
3.669
 30
0.0
 42
1.0
  0
SEQEND
  5
8DC
100
AcDbEntity
  8
0
  0
POLYLINE
  5
8DD
100
AcDbEntity
  8
MECHANICAL1
100
AcDb2dPolyline
 66
     1
 10
0.0
 20
0.0
 30
0.0
 40
0.01
 41
0.01
 75
     8
  0
VERTEX
  5
8DE
100
AcDbEntity
  8
MECHANICAL1
100
AcDbVertex
100
AcDb2dVertex
 10
9.061982
 20
3.688947
 30
0.0
  0
VERTEX
  5
8DF
100
AcDbEntity
  8
MECHANICAL1
100
AcDbVertex
100
AcDb2dVertex
 10
9.122
 20
3.669
 30
0.0
  0
SEQEND
  5
8E0
100
AcDbEntity
  8
0
  0
POLYLINE
  5
8E1
100
AcDbEntity
  8
MECHANICAL1
100
AcDb2dPolyline
 66
     1
 10
0.0
 20
0.0
 30
0.0
 70
     1
 40
0.005
 41
0.005
 75
     8
  0
VERTEX
  5
8E2
100
AcDbEntity
  8
MECHANICAL1
100
AcDbVertex
100
AcDb2dVertex
 10
9.059482
 20
3.688947
 30
0.0
 42
1.0
  0
VERTEX
  5
8E3
100
AcDbEntity
  8
MECHANICAL1
100
AcDbVertex
100
AcDb2dVertex
 10
9.064482
 20
3.688947
 30
0.0
 42
1.0
  0
SEQEND
  5
8E4
100
AcDbEntity
  8
0
  0
POLYLINE
  5
8E5
100
AcDbEntity
  8
MECHANICAL1
100
AcDb2dPolyline
 66
     1
 10
0.0
 20
0.0
 30
0.0
 70
     1
 40
0.005
 41
0.005
 75
     8
  0
VERTEX
  5
8E6
100
AcDbEntity
  8
MECHANICAL1
100
AcDbVertex
100
AcDb2dVertex
 10
9.1195
 20
3.669
 30
0.0
 42
1.0
  0
VERTEX
  5
8E7
100
AcDbEntity
  8
MECHANICAL1
100
AcDbVertex
100
AcDb2dVertex
 10
9.1245
 20
3.669
 30
0.0
 42
1.0
  0
SEQEND
  5
8E8
100
AcDbEntity
  8
0
  0
POLYLINE
  5
8E9
100
AcDbEntity
  8
MECHANICAL1
100
AcDb2dPolyline
 66
     1
 10
0.0
 20
0.0
 30
0.0
 40
0.01
 41
0.01
 75
     8
  0
VERTEX
  5
8EA
100
AcDbEntity
  8
MECHANICAL1
100
AcDbVertex
100
AcDb2dVertex
 10
8.0
 20
3.668
 30
0.0
  0
VERTEX
  5
8EB
100
AcDbEntity
  8
MECHANICAL1
100
AcDbVertex
100
AcDb2dVertex
 10
8.060018
 20
3.648054
 30
0.0
  0
SEQEND
  5
8EC
100
AcDbEntity
  8
0
  0
POLYLINE
  5
8ED
100
AcDbEntity
  8
MECHANICAL1
100
AcDb2dPolyline
 66
     1
 10
0.0
 20
0.0
 30
0.0
 70
     1
 40
0.005
 41
0.005
 75
     8
  0
VERTEX
  5
8EE
100
AcDbEntity
  8
MECHANICAL1
100
AcDbVertex
100
AcDb2dVertex
 10
7.9975
 20
3.668
 30
0.0
 42
1.0
  0
VERTEX
  5
8EF
100
AcDbEntity
  8
MECHANICAL1
100
AcDbVertex
100
AcDb2dVertex
 10
8.0025
 20
3.668
 30
0.0
 42
1.0
  0
SEQEND
  5
8F0
100
AcDbEntity
  8
0
  0
POLYLINE
  5
8F1
100
AcDbEntity
  8
MECHANICAL1
100
AcDb2dPolyline
 66
     1
 10
0.0
 20
0.0
 30
0.0
 70
     1
 40
0.005
 41
0.005
 75
     8
  0
VERTEX
  5
8F2
100
AcDbEntity
  8
MECHANICAL1
100
AcDbVertex
100
AcDb2dVertex
 10
8.057518
 20
3.648054
 30
0.0
 42
1.0
  0
VERTEX
  5
8F3
100
AcDbEntity
  8
MECHANICAL1
100
AcDbVertex
100
AcDb2dVertex
 10
8.062518
 20
3.648054
 30
0.0
 42
1.0
  0
SEQEND
  5
8F4
100
AcDbEntity
  8
0
  0
POLYLINE
  5
8F5
100
AcDbEntity
  8
MECHANICAL1
100
AcDb2dPolyline
 66
     1
 10
0.0
 20
0.0
 30
0.0
 40
0.01
 41
0.01
 75
     8
  0
VERTEX
  5
8F6
100
AcDbEntity
  8
MECHANICAL1
100
AcDbVertex
100
AcDb2dVertex
 10
8.0
 20
3.668
 30
0.0
  0
VERTEX
  5
8F7
100
AcDbEntity
  8
MECHANICAL1
100
AcDbVertex
100
AcDb2dVertex
 10
8.059982
 20
3.688054
 30
0.0
  0
SEQEND
  5
8F8
100
AcDbEntity
  8
0
  0
POLYLINE
  5
8F9
100
AcDbEntity
  8
MECHANICAL1
100
AcDb2dPolyline
 66
     1
 10
0.0
 20
0.0
 30
0.0
 70
     1
 40
0.005
 41
0.005
 75
     8
  0
VERTEX
  5
8FA
100
AcDbEntity
  8
MECHANICAL1
100
AcDbVertex
100
AcDb2dVertex
 10
7.9975
 20
3.668
 30
0.0
 42
1.0
  0
VERTEX
  5
8FB
100
AcDbEntity
  8
MECHANICAL1
100
AcDbVertex
100
AcDb2dVertex
 10
8.0025
 20
3.668
 30
0.0
 42
1.0
  0
SEQEND
  5
8FC
100
AcDbEntity
  8
0
  0
POLYLINE
  5
8FD
100
AcDbEntity
  8
MECHANICAL1
100
AcDb2dPolyline
 66
     1
 10
0.0
 20
0.0
 30
0.0
 70
     1
 40
0.005
 41
0.005
 75
     8
  0
VERTEX
  5
8FE
100
AcDbEntity
  8
MECHANICAL1
100
AcDbVertex
100
AcDb2dVertex
 10
8.057482
 20
3.688054
 30
0.0
 42
1.0
  0
VERTEX
  5
8FF
100
AcDbEntity
  8
MECHANICAL1
100
AcDbVertex
100
AcDb2dVertex
 10
8.062482
 20
3.688054
 30
0.0
 42
1.0
  0
SEQEND
  5
900
100
AcDbEntity
  8
0
  0
POLYLINE
  5
901
100
AcDbEntity
  8
MECHANICAL1
100
AcDb2dPolyline
 66
     1
 10
0.0
 20
0.0
 30
0.0
 40
0.01
 41
0.01
 75
     8
  0
VERTEX
  5
902
100
AcDbEntity
  8
MECHANICAL1
100
AcDbVertex
100
AcDb2dVertex
 10
8.676967
 20
3.668603
 30
0.0
  0
VERTEX
  5
903
100
AcDbEntity
  8
MECHANICAL1
100
AcDbVertex
100
AcDb2dVertex
 10
9.122
 20
3.669
 30
0.0
  0
SEQEND
  5
904
100
AcDbEntity
  8
0
  0
POLYLINE
  5
905
100
AcDbEntity
  8
MECHANICAL1
100
AcDb2dPolyline
 66
     1
 10
0.0
 20
0.0
 30
0.0
 70
     1
 40
0.005
 41
0.005
 75
     8
  0
VERTEX
  5
906
100
AcDbEntity
  8
MECHANICAL1
100
AcDbVertex
100
AcDb2dVertex
 10
8.674468
 20
3.668603
 30
0.0
 42
1.0
  0
VERTEX
  5
907
100
AcDbEntity
  8
MECHANICAL1
100
AcDbVertex
100
AcDb2dVertex
 10
8.679467
 20
3.668603
 30
0.0
 42
1.0
  0
SEQEND
  5
908
100
AcDbEntity
  8
0
  0
POLYLINE
  5
909
100
AcDbEntity
  8
MECHANICAL1
100
AcDb2dPolyline
 66
     1
 10
0.0
 20
0.0
 30
0.0
 70
     1
 40
0.005
 41
0.005
 75
     8
  0
VERTEX
  5
90A
100
AcDbEntity
  8
MECHANICAL1
100
AcDbVertex
100
AcDb2dVertex
 10
9.1195
 20
3.669
 30
0.0
 42
1.0
  0
VERTEX
  5
90B
100
AcDbEntity
  8
MECHANICAL1
100
AcDbVertex
100
AcDb2dVertex
 10
9.1245
 20
3.669
 30
0.0
 42
1.0
  0
SEQEND
  5
90C
100
AcDbEntity
  8
0
  0
POLYLINE
  5
90D
100
AcDbEntity
  8
MECHANICAL1
100
AcDb2dPolyline
 66
     1
 10
0.0
 20
0.0
 30
0.0
 40
0.01
 41
0.01
 75
     8
  0
VERTEX
  5
90E
100
AcDbEntity
  8
MECHANICAL1
100
AcDbVertex
100
AcDb2dVertex
 10
8.0
 20
3.668
 30
0.0
  0
VERTEX
  5
90F
100
AcDbEntity
  8
MECHANICAL1
100
AcDbVertex
100
AcDb2dVertex
 10
8.445032
 20
3.668397
 30
0.0
  0
SEQEND
  5
910
100
AcDbEntity
  8
0
  0
POLYLINE
  5
911
100
AcDbEntity
  8
MECHANICAL1
100
AcDb2dPolyline
 66
     1
 10
0.0
 20
0.0
 30
0.0
 70
     1
 40
0.005
 41
0.005
 75
     8
  0
VERTEX
  5
912
100
AcDbEntity
  8
MECHANICAL1
100
AcDbVertex
100
AcDb2dVertex
 10
7.9975
 20
3.668
 30
0.0
 42
1.0
  0
VERTEX
  5
913
100
AcDbEntity
  8
MECHANICAL1
100
AcDbVertex
100
AcDb2dVertex
 10
8.0025
 20
3.668
 30
0.0
 42
1.0
  0
SEQEND
  5
914
100
AcDbEntity
  8
0
  0
POLYLINE
  5
915
100
AcDbEntity
  8
MECHANICAL1
100
AcDb2dPolyline
 66
     1
 10
0.0
 20
0.0
 30
0.0
 70
     1
 40
0.005
 41
0.005
 75
     8
  0
VERTEX
  5
916
100
AcDbEntity
  8
MECHANICAL1
100
AcDbVertex
100
AcDb2dVertex
 10
8.442532
 20
3.668397
 30
0.0
 42
1.0
  0
VERTEX
  5
917
100
AcDbEntity
  8
MECHANICAL1
100
AcDbVertex
100
AcDb2dVertex
 10
8.447532
 20
3.668397
 30
0.0
 42
1.0
  0
SEQEND
  5
918
100
AcDbEntity
  8
0
  0
POLYLINE
  5
919
100
AcDbEntity
  8
MECHANICAL1
100
AcDb2dPolyline
 66
     1
 10
0.0
 20
0.0
 30
0.0
 40
0.01
 41
0.01
 75
     8
  0
VERTEX
  5
91A
100
AcDbEntity
  8
MECHANICAL1
100
AcDbVertex
100
AcDb2dVertex
 10
7.999991
 20
3.658
 30
0.0
  0
VERTEX
  5
91B
100
AcDbEntity
  8
MECHANICAL1
100
AcDbVertex
100
AcDb2dVertex
 10
8.000009
 20
3.678
 30
0.0
  0
SEQEND
  5
91C
100
AcDbEntity
  8
0
  0
POLYLINE
  5
91D
100
AcDbEntity
  8
MECHANICAL1
100
AcDb2dPolyline
 66
     1
 10
0.0
 20
0.0
 30
0.0
 70
     1
 40
0.005
 41
0.005
 75
     8
  0
VERTEX
  5
91E
100
AcDbEntity
  8
MECHANICAL1
100
AcDbVertex
100
AcDb2dVertex
 10
7.997491
 20
3.658
 30
0.0
 42
1.0
  0
VERTEX
  5
91F
100
AcDbEntity
  8
MECHANICAL1
100
AcDbVertex
100
AcDb2dVertex
 10
8.002491
 20
3.658
 30
0.0
 42
1.0
  0
SEQEND
  5
920
100
AcDbEntity
  8
0
  0
POLYLINE
  5
921
100
AcDbEntity
  8
MECHANICAL1
100
AcDb2dPolyline
 66
     1
 10
0.0
 20
0.0
 30
0.0
 70
     1
 40
0.005
 41
0.005
 75
     8
  0
VERTEX
  5
922
100
AcDbEntity
  8
MECHANICAL1
100
AcDbVertex
100
AcDb2dVertex
 10
7.997509
 20
3.678
 30
0.0
 42
1.0
  0
VERTEX
  5
923
100
AcDbEntity
  8
MECHANICAL1
100
AcDbVertex
100
AcDb2dVertex
 10
8.002509
 20
3.678
 30
0.0
 42
1.0
  0
SEQEND
  5
924
100
AcDbEntity
  8
0
  0
POLYLINE
  5
925
100
AcDbEntity
  8
MECHANICAL1
100
AcDb2dPolyline
 66
     1
 10
0.0
 20
0.0
 30
0.0
 40
0.01
 41
0.01
 75
     8
  0
VERTEX
  5
926
100
AcDbEntity
  8
MECHANICAL1
100
AcDbVertex
100
AcDb2dVertex
 10
6.877991
 20
3.659
 30
0.0
  0
VERTEX
  5
927
100
AcDbEntity
  8
MECHANICAL1
100
AcDbVertex
100
AcDb2dVertex
 10
6.878009
 20
3.679
 30
0.0
  0
SEQEND
  5
928
100
AcDbEntity
  8
0
  0
POLYLINE
  5
929
100
AcDbEntity
  8
MECHANICAL1
100
AcDb2dPolyline
 66
     1
 10
0.0
 20
0.0
 30
0.0
 70
     1
 40
0.005
 41
0.005
 75
     8
  0
VERTEX
  5
92A
100
AcDbEntity
  8
MECHANICAL1
100
AcDbVertex
100
AcDb2dVertex
 10
6.875491
 20
3.659
 30
0.0
 42
1.0
  0
VERTEX
  5
92B
100
AcDbEntity
  8
MECHANICAL1
100
AcDbVertex
100
AcDb2dVertex
 10
6.880491
 20
3.659
 30
0.0
 42
1.0
  0
SEQEND
  5
92C
100
AcDbEntity
  8
0
  0
POLYLINE
  5
92D
100
AcDbEntity
  8
MECHANICAL1
100
AcDb2dPolyline
 66
     1
 10
0.0
 20
0.0
 30
0.0
 70
     1
 40
0.005
 41
0.005
 75
     8
  0
VERTEX
  5
92E
100
AcDbEntity
  8
MECHANICAL1
100
AcDbVertex
100
AcDb2dVertex
 10
6.875509
 20
3.679
 30
0.0
 42
1.0
  0
VERTEX
  5
92F
100
AcDbEntity
  8
MECHANICAL1
100
AcDbVertex
100
AcDb2dVertex
 10
6.880509
 20
3.679
 30
0.0
 42
1.0
  0
SEQEND
  5
930
100
AcDbEntity
  8
0
  0
POLYLINE
  5
931
100
AcDbEntity
  8
MECHANICAL1
100
AcDb2dPolyline
 66
     1
 10
0.0
 20
0.0
 30
0.0
 40
0.01
 41
0.01
 75
     8
  0
VERTEX
  5
932
100
AcDbEntity
  8
MECHANICAL1
100
AcDbVertex
100
AcDb2dVertex
 10
7.939982
 20
3.648054
 30
0.0
  0
VERTEX
  5
933
100
AcDbEntity
  8
MECHANICAL1
100
AcDbVertex
100
AcDb2dVertex
 10
8.0
 20
3.668
 30
0.0
  0
SEQEND
  5
934
100
AcDbEntity
  8
0
  0
POLYLINE
  5
935
100
AcDbEntity
  8
MECHANICAL1
100
AcDb2dPolyline
 66
     1
 10
0.0
 20
0.0
 30
0.0
 70
     1
 40
0.005
 41
0.005
 75
     8
  0
VERTEX
  5
936
100
AcDbEntity
  8
MECHANICAL1
100
AcDbVertex
100
AcDb2dVertex
 10
7.937482
 20
3.648054
 30
0.0
 42
1.0
  0
VERTEX
  5
937
100
AcDbEntity
  8
MECHANICAL1
100
AcDbVertex
100
AcDb2dVertex
 10
7.942482
 20
3.648054
 30
0.0
 42
1.0
  0
SEQEND
  5
938
100
AcDbEntity
  8
0
  0
POLYLINE
  5
939
100
AcDbEntity
  8
MECHANICAL1
100
AcDb2dPolyline
 66
     1
 10
0.0
 20
0.0
 30
0.0
 70
     1
 40
0.005
 41
0.005
 75
     8
  0
VERTEX
  5
93A
100
AcDbEntity
  8
MECHANICAL1
100
AcDbVertex
100
AcDb2dVertex
 10
7.9975
 20
3.668
 30
0.0
 42
1.0
  0
VERTEX
  5
93B
100
AcDbEntity
  8
MECHANICAL1
100
AcDbVertex
100
AcDb2dVertex
 10
8.0025
 20
3.668
 30
0.0
 42
1.0
  0
SEQEND
  5
93C
100
AcDbEntity
  8
0
  0
POLYLINE
  5
93D
100
AcDbEntity
  8
MECHANICAL1
100
AcDb2dPolyline
 66
     1
 10
0.0
 20
0.0
 30
0.0
 40
0.01
 41
0.01
 75
     8
  0
VERTEX
  5
93E
100
AcDbEntity
  8
MECHANICAL1
100
AcDbVertex
100
AcDb2dVertex
 10
7.940018
 20
3.688054
 30
0.0
  0
VERTEX
  5
93F
100
AcDbEntity
  8
MECHANICAL1
100
AcDbVertex
100
AcDb2dVertex
 10
8.0
 20
3.668
 30
0.0
  0
SEQEND
  5
940
100
AcDbEntity
  8
0
  0
POLYLINE
  5
941
100
AcDbEntity
  8
MECHANICAL1
100
AcDb2dPolyline
 66
     1
 10
0.0
 20
0.0
 30
0.0
 70
     1
 40
0.005
 41
0.005
 75
     8
  0
VERTEX
  5
942
100
AcDbEntity
  8
MECHANICAL1
100
AcDbVertex
100
AcDb2dVertex
 10
7.937518
 20
3.688054
 30
0.0
 42
1.0
  0
VERTEX
  5
943
100
AcDbEntity
  8
MECHANICAL1
100
AcDbVertex
100
AcDb2dVertex
 10
7.942518
 20
3.688054
 30
0.0
 42
1.0
  0
SEQEND
  5
944
100
AcDbEntity
  8
0
  0
POLYLINE
  5
945
100
AcDbEntity
  8
MECHANICAL1
100
AcDb2dPolyline
 66
     1
 10
0.0
 20
0.0
 30
0.0
 70
     1
 40
0.005
 41
0.005
 75
     8
  0
VERTEX
  5
946
100
AcDbEntity
  8
MECHANICAL1
100
AcDbVertex
100
AcDb2dVertex
 10
7.9975
 20
3.668
 30
0.0
 42
1.0
  0
VERTEX
  5
947
100
AcDbEntity
  8
MECHANICAL1
100
AcDbVertex
100
AcDb2dVertex
 10
8.0025
 20
3.668
 30
0.0
 42
1.0
  0
SEQEND
  5
948
100
AcDbEntity
  8
0
  0
POLYLINE
  5
949
100
AcDbEntity
  8
MECHANICAL1
100
AcDb2dPolyline
 66
     1
 10
0.0
 20
0.0
 30
0.0
 40
0.01
 41
0.01
 75
     8
  0
VERTEX
  5
94A
100
AcDbEntity
  8
MECHANICAL1
100
AcDbVertex
100
AcDb2dVertex
 10
6.878
 20
3.669
 30
0.0
  0
VERTEX
  5
94B
100
AcDbEntity
  8
MECHANICAL1
100
AcDbVertex
100
AcDb2dVertex
 10
6.937982
 20
3.648947
 30
0.0
  0
SEQEND
  5
94C
100
AcDbEntity
  8
0
  0
POLYLINE
  5
94D
100
AcDbEntity
  8
MECHANICAL1
100
AcDb2dPolyline
 66
     1
 10
0.0
 20
0.0
 30
0.0
 70
     1
 40
0.005
 41
0.005
 75
     8
  0
VERTEX
  5
94E
100
AcDbEntity
  8
MECHANICAL1
100
AcDbVertex
100
AcDb2dVertex
 10
6.8755
 20
3.669
 30
0.0
 42
1.0
  0
VERTEX
  5
94F
100
AcDbEntity
  8
MECHANICAL1
100
AcDbVertex
100
AcDb2dVertex
 10
6.8805
 20
3.669
 30
0.0
 42
1.0
  0
SEQEND
  5
950
100
AcDbEntity
  8
0
  0
POLYLINE
  5
951
100
AcDbEntity
  8
MECHANICAL1
100
AcDb2dPolyline
 66
     1
 10
0.0
 20
0.0
 30
0.0
 70
     1
 40
0.005
 41
0.005
 75
     8
  0
VERTEX
  5
952
100
AcDbEntity
  8
MECHANICAL1
100
AcDbVertex
100
AcDb2dVertex
 10
6.935482
 20
3.648947
 30
0.0
 42
1.0
  0
VERTEX
  5
953
100
AcDbEntity
  8
MECHANICAL1
100
AcDbVertex
100
AcDb2dVertex
 10
6.940482
 20
3.648947
 30
0.0
 42
1.0
  0
SEQEND
  5
954
100
AcDbEntity
  8
0
  0
POLYLINE
  5
955
100
AcDbEntity
  8
MECHANICAL1
100
AcDb2dPolyline
 66
     1
 10
0.0
 20
0.0
 30
0.0
 40
0.01
 41
0.01
 75
     8
  0
VERTEX
  5
956
100
AcDbEntity
  8
MECHANICAL1
100
AcDbVertex
100
AcDb2dVertex
 10
6.878
 20
3.669
 30
0.0
  0
VERTEX
  5
957
100
AcDbEntity
  8
MECHANICAL1
100
AcDbVertex
100
AcDb2dVertex
 10
6.938018
 20
3.688947
 30
0.0
  0
SEQEND
  5
958
100
AcDbEntity
  8
0
  0
POLYLINE
  5
959
100
AcDbEntity
  8
MECHANICAL1
100
AcDb2dPolyline
 66
     1
 10
0.0
 20
0.0
 30
0.0
 70
     1
 40
0.005
 41
0.005
 75
     8
  0
VERTEX
  5
95A
100
AcDbEntity
  8
MECHANICAL1
100
AcDbVertex
100
AcDb2dVertex
 10
6.8755
 20
3.669
 30
0.0
 42
1.0
  0
VERTEX
  5
95B
100
AcDbEntity
  8
MECHANICAL1
100
AcDbVertex
100
AcDb2dVertex
 10
6.8805
 20
3.669
 30
0.0
 42
1.0
  0
SEQEND
  5
95C
100
AcDbEntity
  8
0
  0
POLYLINE
  5
95D
100
AcDbEntity
  8
MECHANICAL1
100
AcDb2dPolyline
 66
     1
 10
0.0
 20
0.0
 30
0.0
 70
     1
 40
0.005
 41
0.005
 75
     8
  0
VERTEX
  5
95E
100
AcDbEntity
  8
MECHANICAL1
100
AcDbVertex
100
AcDb2dVertex
 10
6.935518
 20
3.688947
 30
0.0
 42
1.0
  0
VERTEX
  5
95F
100
AcDbEntity
  8
MECHANICAL1
100
AcDbVertex
100
AcDb2dVertex
 10
6.940518
 20
3.688947
 30
0.0
 42
1.0
  0
SEQEND
  5
960
100
AcDbEntity
  8
0
  0
POLYLINE
  5
961
100
AcDbEntity
  8
MECHANICAL1
100
AcDb2dPolyline
 66
     1
 10
0.0
 20
0.0
 30
0.0
 40
0.01
 41
0.01
 75
     8
  0
VERTEX
  5
962
100
AcDbEntity
  8
MECHANICAL1
100
AcDbVertex
100
AcDb2dVertex
 10
7.554968
 20
3.668397
 30
0.0
  0
VERTEX
  5
963
100
AcDbEntity
  8
MECHANICAL1
100
AcDbVertex
100
AcDb2dVertex
 10
8.0
 20
3.668
 30
0.0
  0
SEQEND
  5
964
100
AcDbEntity
  8
0
  0
POLYLINE
  5
965
100
AcDbEntity
  8
MECHANICAL1
100
AcDb2dPolyline
 66
     1
 10
0.0
 20
0.0
 30
0.0
 70
     1
 40
0.005
 41
0.005
 75
     8
  0
VERTEX
  5
966
100
AcDbEntity
  8
MECHANICAL1
100
AcDbVertex
100
AcDb2dVertex
 10
7.552467
 20
3.668397
 30
0.0
 42
1.0
  0
VERTEX
  5
967
100
AcDbEntity
  8
MECHANICAL1
100
AcDbVertex
100
AcDb2dVertex
 10
7.557467
 20
3.668397
 30
0.0
 42
1.0
  0
SEQEND
  5
968
100
AcDbEntity
  8
0
  0
POLYLINE
  5
969
100
AcDbEntity
  8
MECHANICAL1
100
AcDb2dPolyline
 66
     1
 10
0.0
 20
0.0
 30
0.0
 70
     1
 40
0.005
 41
0.005
 75
     8
  0
VERTEX
  5
96A
100
AcDbEntity
  8
MECHANICAL1
100
AcDbVertex
100
AcDb2dVertex
 10
7.9975
 20
3.668
 30
0.0
 42
1.0
  0
VERTEX
  5
96B
100
AcDbEntity
  8
MECHANICAL1
100
AcDbVertex
100
AcDb2dVertex
 10
8.0025
 20
3.668
 30
0.0
 42
1.0
  0
SEQEND
  5
96C
100
AcDbEntity
  8
0
  0
POLYLINE
  5
96D
100
AcDbEntity
  8
MECHANICAL1
100
AcDb2dPolyline
 66
     1
 10
0.0
 20
0.0
 30
0.0
 40
0.01
 41
0.01
 75
     8
  0
VERTEX
  5
96E
100
AcDbEntity
  8
MECHANICAL1
100
AcDbVertex
100
AcDb2dVertex
 10
6.878
 20
3.669
 30
0.0
  0
VERTEX
  5
96F
100
AcDbEntity
  8
MECHANICAL1
100
AcDbVertex
100
AcDb2dVertex
 10
7.323032
 20
3.668603
 30
0.0
  0
SEQEND
  5
970
100
AcDbEntity
  8
0
  0
POLYLINE
  5
971
100
AcDbEntity
  8
MECHANICAL1
100
AcDb2dPolyline
 66
     1
 10
0.0
 20
0.0
 30
0.0
 70
     1
 40
0.005
 41
0.005
 75
     8
  0
VERTEX
  5
972
100
AcDbEntity
  8
MECHANICAL1
100
AcDbVertex
100
AcDb2dVertex
 10
6.8755
 20
3.669
 30
0.0
 42
1.0
  0
VERTEX
  5
973
100
AcDbEntity
  8
MECHANICAL1
100
AcDbVertex
100
AcDb2dVertex
 10
6.8805
 20
3.669
 30
0.0
 42
1.0
  0
SEQEND
  5
974
100
AcDbEntity
  8
0
  0
POLYLINE
  5
975
100
AcDbEntity
  8
MECHANICAL1
100
AcDb2dPolyline
 66
     1
 10
0.0
 20
0.0
 30
0.0
 70
     1
 40
0.005
 41
0.005
 75
     8
  0
VERTEX
  5
976
100
AcDbEntity
  8
MECHANICAL1
100
AcDbVertex
100
AcDb2dVertex
 10
7.320532
 20
3.668603
 30
0.0
 42
1.0
  0
VERTEX
  5
977
100
AcDbEntity
  8
MECHANICAL1
100
AcDbVertex
100
AcDb2dVertex
 10
7.325532
 20
3.668603
 30
0.0
 42
1.0
  0
SEQEND
  5
978
100
AcDbEntity
  8
0
  0
POLYLINE
  5
979
100
AcDbEntity
  8
MECHANICAL1
100
AcDb2dPolyline
 66
     1
 10
0.0
 20
0.0
 30
0.0
 40
0.01
 41
0.01
 75
     8
  0
VERTEX
  5
97A
100
AcDbEntity
  8
MECHANICAL1
100
AcDbVertex
100
AcDb2dVertex
 10
4.425
 20
7.000008
 30
0.0
  0
VERTEX
  5
97B
100
AcDbEntity
  8
MECHANICAL1
100
AcDbVertex
100
AcDb2dVertex
 10
4.445
 20
6.999992
 30
0.0
  0
SEQEND
  5
97C
100
AcDbEntity
  8
0
  0
POLYLINE
  5
97D
100
AcDbEntity
  8
MECHANICAL1
100
AcDb2dPolyline
 66
     1
 10
0.0
 20
0.0
 30
0.0
 70
     1
 40
0.005
 41
0.005
 75
     8
  0
VERTEX
  5
97E
100
AcDbEntity
  8
MECHANICAL1
100
AcDbVertex
100
AcDb2dVertex
 10
4.4225
 20
7.000008
 30
0.0
 42
1.0
  0
VERTEX
  5
97F
100
AcDbEntity
  8
MECHANICAL1
100
AcDbVertex
100
AcDb2dVertex
 10
4.4275
 20
7.000008
 30
0.0
 42
1.0
  0
SEQEND
  5
980
100
AcDbEntity
  8
0
  0
POLYLINE
  5
981
100
AcDbEntity
  8
MECHANICAL1
100
AcDb2dPolyline
 66
     1
 10
0.0
 20
0.0
 30
0.0
 70
     1
 40
0.005
 41
0.005
 75
     8
  0
VERTEX
  5
982
100
AcDbEntity
  8
MECHANICAL1
100
AcDbVertex
100
AcDb2dVertex
 10
4.4425
 20
6.999992
 30
0.0
 42
1.0
  0
VERTEX
  5
983
100
AcDbEntity
  8
MECHANICAL1
100
AcDbVertex
100
AcDb2dVertex
 10
4.4475
 20
6.999992
 30
0.0
 42
1.0
  0
SEQEND
  5
984
100
AcDbEntity
  8
0
  0
POLYLINE
  5
985
100
AcDbEntity
  8
MECHANICAL1
100
AcDb2dPolyline
 66
     1
 10
0.0
 20
0.0
 30
0.0
 40
0.01
 41
0.01
 75
     8
  0
VERTEX
  5
986
100
AcDbEntity
  8
MECHANICAL1
100
AcDbVertex
100
AcDb2dVertex
 10
4.424
 20
5.734008
 30
0.0
  0
VERTEX
  5
987
100
AcDbEntity
  8
MECHANICAL1
100
AcDbVertex
100
AcDb2dVertex
 10
4.444
 20
5.733992
 30
0.0
  0
SEQEND
  5
988
100
AcDbEntity
  8
0
  0
POLYLINE
  5
989
100
AcDbEntity
  8
MECHANICAL1
100
AcDb2dPolyline
 66
     1
 10
0.0
 20
0.0
 30
0.0
 70
     1
 40
0.005
 41
0.005
 75
     8
  0
VERTEX
  5
98A
100
AcDbEntity
  8
MECHANICAL1
100
AcDbVertex
100
AcDb2dVertex
 10
4.4215
 20
5.734008
 30
0.0
 42
1.0
  0
VERTEX
  5
98B
100
AcDbEntity
  8
MECHANICAL1
100
AcDbVertex
100
AcDb2dVertex
 10
4.4265
 20
5.734008
 30
0.0
 42
1.0
  0
SEQEND
  5
98C
100
AcDbEntity
  8
0
  0
POLYLINE
  5
98D
100
AcDbEntity
  8
MECHANICAL1
100
AcDb2dPolyline
 66
     1
 10
0.0
 20
0.0
 30
0.0
 70
     1
 40
0.005
 41
0.005
 75
     8
  0
VERTEX
  5
98E
100
AcDbEntity
  8
MECHANICAL1
100
AcDbVertex
100
AcDb2dVertex
 10
4.4415
 20
5.733992
 30
0.0
 42
1.0
  0
VERTEX
  5
98F
100
AcDbEntity
  8
MECHANICAL1
100
AcDbVertex
100
AcDb2dVertex
 10
4.4465
 20
5.733992
 30
0.0
 42
1.0
  0
SEQEND
  5
990
100
AcDbEntity
  8
0
  0
POLYLINE
  5
991
100
AcDbEntity
  8
MECHANICAL1
100
AcDb2dPolyline
 66
     1
 10
0.0
 20
0.0
 30
0.0
 40
0.01
 41
0.01
 75
     8
  0
VERTEX
  5
992
100
AcDbEntity
  8
MECHANICAL1
100
AcDbVertex
100
AcDb2dVertex
 10
4.435
 20
7.0
 30
0.0
  0
VERTEX
  5
993
100
AcDbEntity
  8
MECHANICAL1
100
AcDbVertex
100
AcDb2dVertex
 10
4.454953
 20
6.939984
 30
0.0
  0
SEQEND
  5
994
100
AcDbEntity
  8
0
  0
POLYLINE
  5
995
100
AcDbEntity
  8
MECHANICAL1
100
AcDb2dPolyline
 66
     1
 10
0.0
 20
0.0
 30
0.0
 70
     1
 40
0.005
 41
0.005
 75
     8
  0
VERTEX
  5
996
100
AcDbEntity
  8
MECHANICAL1
100
AcDbVertex
100
AcDb2dVertex
 10
4.4325
 20
7.0
 30
0.0
 42
1.0
  0
VERTEX
  5
997
100
AcDbEntity
  8
MECHANICAL1
100
AcDbVertex
100
AcDb2dVertex
 10
4.4375
 20
7.0
 30
0.0
 42
1.0
  0
SEQEND
  5
998
100
AcDbEntity
  8
0
  0
POLYLINE
  5
999
100
AcDbEntity
  8
MECHANICAL1
100
AcDb2dPolyline
 66
     1
 10
0.0
 20
0.0
 30
0.0
 70
     1
 40
0.005
 41
0.005
 75
     8
  0
VERTEX
  5
99A
100
AcDbEntity
  8
MECHANICAL1
100
AcDbVertex
100
AcDb2dVertex
 10
4.452453
 20
6.939984
 30
0.0
 42
1.0
  0
VERTEX
  5
99B
100
AcDbEntity
  8
MECHANICAL1
100
AcDbVertex
100
AcDb2dVertex
 10
4.457453
 20
6.939984
 30
0.0
 42
1.0
  0
SEQEND
  5
99C
100
AcDbEntity
  8
0
  0
POLYLINE
  5
99D
100
AcDbEntity
  8
MECHANICAL1
100
AcDb2dPolyline
 66
     1
 10
0.0
 20
0.0
 30
0.0
 40
0.01
 41
0.01
 75
     8
  0
VERTEX
  5
99E
100
AcDbEntity
  8
MECHANICAL1
100
AcDbVertex
100
AcDb2dVertex
 10
4.414953
 20
6.940016
 30
0.0
  0
VERTEX
  5
99F
100
AcDbEntity
  8
MECHANICAL1
100
AcDbVertex
100
AcDb2dVertex
 10
4.435
 20
7.0
 30
0.0
  0
SEQEND
  5
9A0
100
AcDbEntity
  8
0
  0
POLYLINE
  5
9A1
100
AcDbEntity
  8
MECHANICAL1
100
AcDb2dPolyline
 66
     1
 10
0.0
 20
0.0
 30
0.0
 70
     1
 40
0.005
 41
0.005
 75
     8
  0
VERTEX
  5
9A2
100
AcDbEntity
  8
MECHANICAL1
100
AcDbVertex
100
AcDb2dVertex
 10
4.412453
 20
6.940016
 30
0.0
 42
1.0
  0
VERTEX
  5
9A3
100
AcDbEntity
  8
MECHANICAL1
100
AcDbVertex
100
AcDb2dVertex
 10
4.417453
 20
6.940016
 30
0.0
 42
1.0
  0
SEQEND
  5
9A4
100
AcDbEntity
  8
0
  0
POLYLINE
  5
9A5
100
AcDbEntity
  8
MECHANICAL1
100
AcDb2dPolyline
 66
     1
 10
0.0
 20
0.0
 30
0.0
 70
     1
 40
0.005
 41
0.005
 75
     8
  0
VERTEX
  5
9A6
100
AcDbEntity
  8
MECHANICAL1
100
AcDbVertex
100
AcDb2dVertex
 10
4.4325
 20
7.0
 30
0.0
 42
1.0
  0
VERTEX
  5
9A7
100
AcDbEntity
  8
MECHANICAL1
100
AcDbVertex
100
AcDb2dVertex
 10
4.4375
 20
7.0
 30
0.0
 42
1.0
  0
SEQEND
  5
9A8
100
AcDbEntity
  8
0
  0
POLYLINE
  5
9A9
100
AcDbEntity
  8
MECHANICAL1
100
AcDb2dPolyline
 66
     1
 10
0.0
 20
0.0
 30
0.0
 40
0.01
 41
0.01
 75
     8
  0
VERTEX
  5
9AA
100
AcDbEntity
  8
MECHANICAL1
100
AcDbVertex
100
AcDb2dVertex
 10
4.434
 20
5.734
 30
0.0
  0
VERTEX
  5
9AB
100
AcDbEntity
  8
MECHANICAL1
100
AcDbVertex
100
AcDb2dVertex
 10
4.454047
 20
5.793984
 30
0.0
  0
SEQEND
  5
9AC
100
AcDbEntity
  8
0
  0
POLYLINE
  5
9AD
100
AcDbEntity
  8
MECHANICAL1
100
AcDb2dPolyline
 66
     1
 10
0.0
 20
0.0
 30
0.0
 70
     1
 40
0.005
 41
0.005
 75
     8
  0
VERTEX
  5
9AE
100
AcDbEntity
  8
MECHANICAL1
100
AcDbVertex
100
AcDb2dVertex
 10
4.4315
 20
5.734
 30
0.0
 42
1.0
  0
VERTEX
  5
9AF
100
AcDbEntity
  8
MECHANICAL1
100
AcDbVertex
100
AcDb2dVertex
 10
4.4365
 20
5.734
 30
0.0
 42
1.0
  0
SEQEND
  5
9B0
100
AcDbEntity
  8
0
  0
POLYLINE
  5
9B1
100
AcDbEntity
  8
MECHANICAL1
100
AcDb2dPolyline
 66
     1
 10
0.0
 20
0.0
 30
0.0
 70
     1
 40
0.005
 41
0.005
 75
     8
  0
VERTEX
  5
9B2
100
AcDbEntity
  8
MECHANICAL1
100
AcDbVertex
100
AcDb2dVertex
 10
4.451547
 20
5.793984
 30
0.0
 42
1.0
  0
VERTEX
  5
9B3
100
AcDbEntity
  8
MECHANICAL1
100
AcDbVertex
100
AcDb2dVertex
 10
4.456547
 20
5.793984
 30
0.0
 42
1.0
  0
SEQEND
  5
9B4
100
AcDbEntity
  8
0
  0
POLYLINE
  5
9B5
100
AcDbEntity
  8
MECHANICAL1
100
AcDb2dPolyline
 66
     1
 10
0.0
 20
0.0
 30
0.0
 40
0.01
 41
0.01
 75
     8
  0
VERTEX
  5
9B6
100
AcDbEntity
  8
MECHANICAL1
100
AcDbVertex
100
AcDb2dVertex
 10
4.414047
 20
5.794016
 30
0.0
  0
VERTEX
  5
9B7
100
AcDbEntity
  8
MECHANICAL1
100
AcDbVertex
100
AcDb2dVertex
 10
4.434
 20
5.734
 30
0.0
  0
SEQEND
  5
9B8
100
AcDbEntity
  8
0
  0
POLYLINE
  5
9B9
100
AcDbEntity
  8
MECHANICAL1
100
AcDb2dPolyline
 66
     1
 10
0.0
 20
0.0
 30
0.0
 70
     1
 40
0.005
 41
0.005
 75
     8
  0
VERTEX
  5
9BA
100
AcDbEntity
  8
MECHANICAL1
100
AcDbVertex
100
AcDb2dVertex
 10
4.411547
 20
5.794016
 30
0.0
 42
1.0
  0
VERTEX
  5
9BB
100
AcDbEntity
  8
MECHANICAL1
100
AcDbVertex
100
AcDb2dVertex
 10
4.416547
 20
5.794016
 30
0.0
 42
1.0
  0
SEQEND
  5
9BC
100
AcDbEntity
  8
0
  0
POLYLINE
  5
9BD
100
AcDbEntity
  8
MECHANICAL1
100
AcDb2dPolyline
 66
     1
 10
0.0
 20
0.0
 30
0.0
 70
     1
 40
0.005
 41
0.005
 75
     8
  0
VERTEX
  5
9BE
100
AcDbEntity
  8
MECHANICAL1
100
AcDbVertex
100
AcDb2dVertex
 10
4.4315
 20
5.734
 30
0.0
 42
1.0
  0
VERTEX
  5
9BF
100
AcDbEntity
  8
MECHANICAL1
100
AcDbVertex
100
AcDb2dVertex
 10
4.4365
 20
5.734
 30
0.0
 42
1.0
  0
SEQEND
  5
9C0
100
AcDbEntity
  8
0
  0
POLYLINE
  5
9C1
100
AcDbEntity
  8
MECHANICAL1
100
AcDb2dPolyline
 66
     1
 10
0.0
 20
0.0
 30
0.0
 40
0.01
 41
0.01
 75
     8
  0
VERTEX
  5
9C2
100
AcDbEntity
  8
MECHANICAL1
100
AcDbVertex
100
AcDb2dVertex
 10
4.434596
 20
6.487966
 30
0.0
  0
VERTEX
  5
9C3
100
AcDbEntity
  8
MECHANICAL1
100
AcDbVertex
100
AcDb2dVertex
 10
4.435
 20
7.0
 30
0.0
  0
SEQEND
  5
9C4
100
AcDbEntity
  8
0
  0
POLYLINE
  5
9C5
100
AcDbEntity
  8
MECHANICAL1
100
AcDb2dPolyline
 66
     1
 10
0.0
 20
0.0
 30
0.0
 70
     1
 40
0.005
 41
0.005
 75
     8
  0
VERTEX
  5
9C6
100
AcDbEntity
  8
MECHANICAL1
100
AcDbVertex
100
AcDb2dVertex
 10
4.432095
 20
6.487966
 30
0.0
 42
1.0
  0
VERTEX
  5
9C7
100
AcDbEntity
  8
MECHANICAL1
100
AcDbVertex
100
AcDb2dVertex
 10
4.437095
 20
6.487966
 30
0.0
 42
1.0
  0
SEQEND
  5
9C8
100
AcDbEntity
  8
0
  0
POLYLINE
  5
9C9
100
AcDbEntity
  8
MECHANICAL1
100
AcDb2dPolyline
 66
     1
 10
0.0
 20
0.0
 30
0.0
 70
     1
 40
0.005
 41
0.005
 75
     8
  0
VERTEX
  5
9CA
100
AcDbEntity
  8
MECHANICAL1
100
AcDbVertex
100
AcDb2dVertex
 10
4.4325
 20
7.0
 30
0.0
 42
1.0
  0
VERTEX
  5
9CB
100
AcDbEntity
  8
MECHANICAL1
100
AcDbVertex
100
AcDb2dVertex
 10
4.4375
 20
7.0
 30
0.0
 42
1.0
  0
SEQEND
  5
9CC
100
AcDbEntity
  8
0
  0
POLYLINE
  5
9CD
100
AcDbEntity
  8
MECHANICAL1
100
AcDb2dPolyline
 66
     1
 10
0.0
 20
0.0
 30
0.0
 40
0.01
 41
0.01
 75
     8
  0
VERTEX
  5
9CE
100
AcDbEntity
  8
MECHANICAL1
100
AcDbVertex
100
AcDb2dVertex
 10
4.434
 20
5.734
 30
0.0
  0
VERTEX
  5
9CF
100
AcDbEntity
  8
MECHANICAL1
100
AcDbVertex
100
AcDb2dVertex
 10
4.434405
 20
6.246034
 30
0.0
  0
SEQEND
  5
9D0
100
AcDbEntity
  8
0
  0
POLYLINE
  5
9D1
100
AcDbEntity
  8
MECHANICAL1
100
AcDb2dPolyline
 66
     1
 10
0.0
 20
0.0
 30
0.0
 70
     1
 40
0.005
 41
0.005
 75
     8
  0
VERTEX
  5
9D2
100
AcDbEntity
  8
MECHANICAL1
100
AcDbVertex
100
AcDb2dVertex
 10
4.4315
 20
5.734
 30
0.0
 42
1.0
  0
VERTEX
  5
9D3
100
AcDbEntity
  8
MECHANICAL1
100
AcDbVertex
100
AcDb2dVertex
 10
4.4365
 20
5.734
 30
0.0
 42
1.0
  0
SEQEND
  5
9D4
100
AcDbEntity
  8
0
  0
POLYLINE
  5
9D5
100
AcDbEntity
  8
MECHANICAL1
100
AcDb2dPolyline
 66
     1
 10
0.0
 20
0.0
 30
0.0
 70
     1
 40
0.005
 41
0.005
 75
     8
  0
VERTEX
  5
9D6
100
AcDbEntity
  8
MECHANICAL1
100
AcDbVertex
100
AcDb2dVertex
 10
4.431904
 20
6.246034
 30
0.0
 42
1.0
  0
VERTEX
  5
9D7
100
AcDbEntity
  8
MECHANICAL1
100
AcDbVertex
100
AcDb2dVertex
 10
4.436904
 20
6.246034
 30
0.0
 42
1.0
  0
SEQEND
  5
9D8
100
AcDbEntity
  8
0
  0
POLYLINE
  5
9D9
100
AcDbEntity
  8
MECHANICAL1
100
AcDb2dPolyline
 66
     1
 10
0.0
 20
0.0
 30
0.0
 40
0.01
 41
0.01
 75
     8
  0
VERTEX
  5
9DA
100
AcDbEntity
  8
MECHANICAL1
100
AcDbVertex
100
AcDb2dVertex
 10
4.425
 20
6.999992
 30
0.0
  0
VERTEX
  5
9DB
100
AcDbEntity
  8
MECHANICAL1
100
AcDbVertex
100
AcDb2dVertex
 10
4.445
 20
7.000008
 30
0.0
  0
SEQEND
  5
9DC
100
AcDbEntity
  8
0
  0
POLYLINE
  5
9DD
100
AcDbEntity
  8
MECHANICAL1
100
AcDb2dPolyline
 66
     1
 10
0.0
 20
0.0
 30
0.0
 70
     1
 40
0.005
 41
0.005
 75
     8
  0
VERTEX
  5
9DE
100
AcDbEntity
  8
MECHANICAL1
100
AcDbVertex
100
AcDb2dVertex
 10
4.4225
 20
6.999992
 30
0.0
 42
1.0
  0
VERTEX
  5
9DF
100
AcDbEntity
  8
MECHANICAL1
100
AcDbVertex
100
AcDb2dVertex
 10
4.4275
 20
6.999992
 30
0.0
 42
1.0
  0
SEQEND
  5
9E0
100
AcDbEntity
  8
0
  0
POLYLINE
  5
9E1
100
AcDbEntity
  8
MECHANICAL1
100
AcDb2dPolyline
 66
     1
 10
0.0
 20
0.0
 30
0.0
 70
     1
 40
0.005
 41
0.005
 75
     8
  0
VERTEX
  5
9E2
100
AcDbEntity
  8
MECHANICAL1
100
AcDbVertex
100
AcDb2dVertex
 10
4.4425
 20
7.000008
 30
0.0
 42
1.0
  0
VERTEX
  5
9E3
100
AcDbEntity
  8
MECHANICAL1
100
AcDbVertex
100
AcDb2dVertex
 10
4.4475
 20
7.000008
 30
0.0
 42
1.0
  0
SEQEND
  5
9E4
100
AcDbEntity
  8
0
  0
POLYLINE
  5
9E5
100
AcDbEntity
  8
MECHANICAL1
100
AcDb2dPolyline
 66
     1
 10
0.0
 20
0.0
 30
0.0
 40
0.01
 41
0.01
 75
     8
  0
VERTEX
  5
9E6
100
AcDbEntity
  8
MECHANICAL1
100
AcDbVertex
100
AcDb2dVertex
 10
4.424
 20
8.265992
 30
0.0
  0
VERTEX
  5
9E7
100
AcDbEntity
  8
MECHANICAL1
100
AcDbVertex
100
AcDb2dVertex
 10
4.444
 20
8.266008
 30
0.0
  0
SEQEND
  5
9E8
100
AcDbEntity
  8
0
  0
POLYLINE
  5
9E9
100
AcDbEntity
  8
MECHANICAL1
100
AcDb2dPolyline
 66
     1
 10
0.0
 20
0.0
 30
0.0
 70
     1
 40
0.005
 41
0.005
 75
     8
  0
VERTEX
  5
9EA
100
AcDbEntity
  8
MECHANICAL1
100
AcDbVertex
100
AcDb2dVertex
 10
4.4215
 20
8.265992
 30
0.0
 42
1.0
  0
VERTEX
  5
9EB
100
AcDbEntity
  8
MECHANICAL1
100
AcDbVertex
100
AcDb2dVertex
 10
4.4265
 20
8.265992
 30
0.0
 42
1.0
  0
SEQEND
  5
9EC
100
AcDbEntity
  8
0
  0
POLYLINE
  5
9ED
100
AcDbEntity
  8
MECHANICAL1
100
AcDb2dPolyline
 66
     1
 10
0.0
 20
0.0
 30
0.0
 70
     1
 40
0.005
 41
0.005
 75
     8
  0
VERTEX
  5
9EE
100
AcDbEntity
  8
MECHANICAL1
100
AcDbVertex
100
AcDb2dVertex
 10
4.4415
 20
8.266008
 30
0.0
 42
1.0
  0
VERTEX
  5
9EF
100
AcDbEntity
  8
MECHANICAL1
100
AcDbVertex
100
AcDb2dVertex
 10
4.4465
 20
8.266008
 30
0.0
 42
1.0
  0
SEQEND
  5
9F0
100
AcDbEntity
  8
0
  0
POLYLINE
  5
9F1
100
AcDbEntity
  8
MECHANICAL1
100
AcDb2dPolyline
 66
     1
 10
0.0
 20
0.0
 30
0.0
 40
0.01
 41
0.01
 75
     8
  0
VERTEX
  5
9F2
100
AcDbEntity
  8
MECHANICAL1
100
AcDbVertex
100
AcDb2dVertex
 10
4.414953
 20
7.059984
 30
0.0
  0
VERTEX
  5
9F3
100
AcDbEntity
  8
MECHANICAL1
100
AcDbVertex
100
AcDb2dVertex
 10
4.435
 20
7.0
 30
0.0
  0
SEQEND
  5
9F4
100
AcDbEntity
  8
0
  0
POLYLINE
  5
9F5
100
AcDbEntity
  8
MECHANICAL1
100
AcDb2dPolyline
 66
     1
 10
0.0
 20
0.0
 30
0.0
 70
     1
 40
0.005
 41
0.005
 75
     8
  0
VERTEX
  5
9F6
100
AcDbEntity
  8
MECHANICAL1
100
AcDbVertex
100
AcDb2dVertex
 10
4.412453
 20
7.059984
 30
0.0
 42
1.0
  0
VERTEX
  5
9F7
100
AcDbEntity
  8
MECHANICAL1
100
AcDbVertex
100
AcDb2dVertex
 10
4.417453
 20
7.059984
 30
0.0
 42
1.0
  0
SEQEND
  5
9F8
100
AcDbEntity
  8
0
  0
POLYLINE
  5
9F9
100
AcDbEntity
  8
MECHANICAL1
100
AcDb2dPolyline
 66
     1
 10
0.0
 20
0.0
 30
0.0
 70
     1
 40
0.005
 41
0.005
 75
     8
  0
VERTEX
  5
9FA
100
AcDbEntity
  8
MECHANICAL1
100
AcDbVertex
100
AcDb2dVertex
 10
4.4325
 20
7.0
 30
0.0
 42
1.0
  0
VERTEX
  5
9FB
100
AcDbEntity
  8
MECHANICAL1
100
AcDbVertex
100
AcDb2dVertex
 10
4.4375
 20
7.0
 30
0.0
 42
1.0
  0
SEQEND
  5
9FC
100
AcDbEntity
  8
0
  0
POLYLINE
  5
9FD
100
AcDbEntity
  8
MECHANICAL1
100
AcDb2dPolyline
 66
     1
 10
0.0
 20
0.0
 30
0.0
 40
0.01
 41
0.01
 75
     8
  0
VERTEX
  5
9FE
100
AcDbEntity
  8
MECHANICAL1
100
AcDbVertex
100
AcDb2dVertex
 10
4.435
 20
7.0
 30
0.0
  0
VERTEX
  5
9FF
100
AcDbEntity
  8
MECHANICAL1
100
AcDbVertex
100
AcDb2dVertex
 10
4.454953
 20
7.060016
 30
0.0
  0
SEQEND
  5
A00
100
AcDbEntity
  8
0
  0
POLYLINE
  5
A01
100
AcDbEntity
  8
MECHANICAL1
100
AcDb2dPolyline
 66
     1
 10
0.0
 20
0.0
 30
0.0
 70
     1
 40
0.005
 41
0.005
 75
     8
  0
VERTEX
  5
A02
100
AcDbEntity
  8
MECHANICAL1
100
AcDbVertex
100
AcDb2dVertex
 10
4.4325
 20
7.0
 30
0.0
 42
1.0
  0
VERTEX
  5
A03
100
AcDbEntity
  8
MECHANICAL1
100
AcDbVertex
100
AcDb2dVertex
 10
4.4375
 20
7.0
 30
0.0
 42
1.0
  0
SEQEND
  5
A04
100
AcDbEntity
  8
0
  0
POLYLINE
  5
A05
100
AcDbEntity
  8
MECHANICAL1
100
AcDb2dPolyline
 66
     1
 10
0.0
 20
0.0
 30
0.0
 70
     1
 40
0.005
 41
0.005
 75
     8
  0
VERTEX
  5
A06
100
AcDbEntity
  8
MECHANICAL1
100
AcDbVertex
100
AcDb2dVertex
 10
4.452453
 20
7.060016
 30
0.0
 42
1.0
  0
VERTEX
  5
A07
100
AcDbEntity
  8
MECHANICAL1
100
AcDbVertex
100
AcDb2dVertex
 10
4.457453
 20
7.060016
 30
0.0
 42
1.0
  0
SEQEND
  5
A08
100
AcDbEntity
  8
0
  0
POLYLINE
  5
A09
100
AcDbEntity
  8
MECHANICAL1
100
AcDb2dPolyline
 66
     1
 10
0.0
 20
0.0
 30
0.0
 40
0.01
 41
0.01
 75
     8
  0
VERTEX
  5
A0A
100
AcDbEntity
  8
MECHANICAL1
100
AcDbVertex
100
AcDb2dVertex
 10
4.414047
 20
8.205984
 30
0.0
  0
VERTEX
  5
A0B
100
AcDbEntity
  8
MECHANICAL1
100
AcDbVertex
100
AcDb2dVertex
 10
4.434
 20
8.266
 30
0.0
  0
SEQEND
  5
A0C
100
AcDbEntity
  8
0
  0
POLYLINE
  5
A0D
100
AcDbEntity
  8
MECHANICAL1
100
AcDb2dPolyline
 66
     1
 10
0.0
 20
0.0
 30
0.0
 70
     1
 40
0.005
 41
0.005
 75
     8
  0
VERTEX
  5
A0E
100
AcDbEntity
  8
MECHANICAL1
100
AcDbVertex
100
AcDb2dVertex
 10
4.411547
 20
8.205984
 30
0.0
 42
1.0
  0
VERTEX
  5
A0F
100
AcDbEntity
  8
MECHANICAL1
100
AcDbVertex
100
AcDb2dVertex
 10
4.416547
 20
8.205984
 30
0.0
 42
1.0
  0
SEQEND
  5
A10
100
AcDbEntity
  8
0
  0
POLYLINE
  5
A11
100
AcDbEntity
  8
MECHANICAL1
100
AcDb2dPolyline
 66
     1
 10
0.0
 20
0.0
 30
0.0
 70
     1
 40
0.005
 41
0.005
 75
     8
  0
VERTEX
  5
A12
100
AcDbEntity
  8
MECHANICAL1
100
AcDbVertex
100
AcDb2dVertex
 10
4.4315
 20
8.266
 30
0.0
 42
1.0
  0
VERTEX
  5
A13
100
AcDbEntity
  8
MECHANICAL1
100
AcDbVertex
100
AcDb2dVertex
 10
4.4365
 20
8.266
 30
0.0
 42
1.0
  0
SEQEND
  5
A14
100
AcDbEntity
  8
0
  0
POLYLINE
  5
A15
100
AcDbEntity
  8
MECHANICAL1
100
AcDb2dPolyline
 66
     1
 10
0.0
 20
0.0
 30
0.0
 40
0.01
 41
0.01
 75
     8
  0
VERTEX
  5
A16
100
AcDbEntity
  8
MECHANICAL1
100
AcDbVertex
100
AcDb2dVertex
 10
4.434
 20
8.266
 30
0.0
  0
VERTEX
  5
A17
100
AcDbEntity
  8
MECHANICAL1
100
AcDbVertex
100
AcDb2dVertex
 10
4.454047
 20
8.206016
 30
0.0
  0
SEQEND
  5
A18
100
AcDbEntity
  8
0
  0
POLYLINE
  5
A19
100
AcDbEntity
  8
MECHANICAL1
100
AcDb2dPolyline
 66
     1
 10
0.0
 20
0.0
 30
0.0
 70
     1
 40
0.005
 41
0.005
 75
     8
  0
VERTEX
  5
A1A
100
AcDbEntity
  8
MECHANICAL1
100
AcDbVertex
100
AcDb2dVertex
 10
4.4315
 20
8.266
 30
0.0
 42
1.0
  0
VERTEX
  5
A1B
100
AcDbEntity
  8
MECHANICAL1
100
AcDbVertex
100
AcDb2dVertex
 10
4.4365
 20
8.266
 30
0.0
 42
1.0
  0
SEQEND
  5
A1C
100
AcDbEntity
  8
0
  0
POLYLINE
  5
A1D
100
AcDbEntity
  8
MECHANICAL1
100
AcDb2dPolyline
 66
     1
 10
0.0
 20
0.0
 30
0.0
 70
     1
 40
0.005
 41
0.005
 75
     8
  0
VERTEX
  5
A1E
100
AcDbEntity
  8
MECHANICAL1
100
AcDbVertex
100
AcDb2dVertex
 10
4.451547
 20
8.206016
 30
0.0
 42
1.0
  0
VERTEX
  5
A1F
100
AcDbEntity
  8
MECHANICAL1
100
AcDbVertex
100
AcDb2dVertex
 10
4.456547
 20
8.206016
 30
0.0
 42
1.0
  0
SEQEND
  5
A20
100
AcDbEntity
  8
0
  0
POLYLINE
  5
A21
100
AcDbEntity
  8
MECHANICAL1
100
AcDb2dPolyline
 66
     1
 10
0.0
 20
0.0
 30
0.0
 40
0.01
 41
0.01
 75
     8
  0
VERTEX
  5
A22
100
AcDbEntity
  8
MECHANICAL1
100
AcDbVertex
100
AcDb2dVertex
 10
4.434596
 20
7.512034
 30
0.0
  0
VERTEX
  5
A23
100
AcDbEntity
  8
MECHANICAL1
100
AcDbVertex
100
AcDb2dVertex
 10
4.435
 20
7.0
 30
0.0
  0
SEQEND
  5
A24
100
AcDbEntity
  8
0
  0
POLYLINE
  5
A25
100
AcDbEntity
  8
MECHANICAL1
100
AcDb2dPolyline
 66
     1
 10
0.0
 20
0.0
 30
0.0
 70
     1
 40
0.005
 41
0.005
 75
     8
  0
VERTEX
  5
A26
100
AcDbEntity
  8
MECHANICAL1
100
AcDbVertex
100
AcDb2dVertex
 10
4.432095
 20
7.512034
 30
0.0
 42
1.0
  0
VERTEX
  5
A27
100
AcDbEntity
  8
MECHANICAL1
100
AcDbVertex
100
AcDb2dVertex
 10
4.437095
 20
7.512034
 30
0.0
 42
1.0
  0
SEQEND
  5
A28
100
AcDbEntity
  8
0
  0
POLYLINE
  5
A29
100
AcDbEntity
  8
MECHANICAL1
100
AcDb2dPolyline
 66
     1
 10
0.0
 20
0.0
 30
0.0
 70
     1
 40
0.005
 41
0.005
 75
     8
  0
VERTEX
  5
A2A
100
AcDbEntity
  8
MECHANICAL1
100
AcDbVertex
100
AcDb2dVertex
 10
4.4325
 20
7.0
 30
0.0
 42
1.0
  0
VERTEX
  5
A2B
100
AcDbEntity
  8
MECHANICAL1
100
AcDbVertex
100
AcDb2dVertex
 10
4.4375
 20
7.0
 30
0.0
 42
1.0
  0
SEQEND
  5
A2C
100
AcDbEntity
  8
0
  0
POLYLINE
  5
A2D
100
AcDbEntity
  8
MECHANICAL1
100
AcDb2dPolyline
 66
     1
 10
0.0
 20
0.0
 30
0.0
 40
0.01
 41
0.01
 75
     8
  0
VERTEX
  5
A2E
100
AcDbEntity
  8
MECHANICAL1
100
AcDbVertex
100
AcDb2dVertex
 10
4.434
 20
8.266
 30
0.0
  0
VERTEX
  5
A2F
100
AcDbEntity
  8
MECHANICAL1
100
AcDbVertex
100
AcDb2dVertex
 10
4.434405
 20
7.753966
 30
0.0
  0
SEQEND
  5
A30
100
AcDbEntity
  8
0
  0
POLYLINE
  5
A31
100
AcDbEntity
  8
MECHANICAL1
100
AcDb2dPolyline
 66
     1
 10
0.0
 20
0.0
 30
0.0
 70
     1
 40
0.005
 41
0.005
 75
     8
  0
VERTEX
  5
A32
100
AcDbEntity
  8
MECHANICAL1
100
AcDbVertex
100
AcDb2dVertex
 10
4.4315
 20
8.266
 30
0.0
 42
1.0
  0
VERTEX
  5
A33
100
AcDbEntity
  8
MECHANICAL1
100
AcDbVertex
100
AcDb2dVertex
 10
4.4365
 20
8.266
 30
0.0
 42
1.0
  0
SEQEND
  5
A34
100
AcDbEntity
  8
0
  0
POLYLINE
  5
A35
100
AcDbEntity
  8
MECHANICAL1
100
AcDb2dPolyline
 66
     1
 10
0.0
 20
0.0
 30
0.0
 70
     1
 40
0.005
 41
0.005
 75
     8
  0
VERTEX
  5
A36
100
AcDbEntity
  8
MECHANICAL1
100
AcDbVertex
100
AcDb2dVertex
 10
4.431904
 20
7.753966
 30
0.0
 42
1.0
  0
VERTEX
  5
A37
100
AcDbEntity
  8
MECHANICAL1
100
AcDbVertex
100
AcDb2dVertex
 10
4.436904
 20
7.753966
 30
0.0
 42
1.0
  0
SEQEND
  5
A38
100
AcDbEntity
  8
0
  0
POLYLINE
  5
A39
100
AcDbEntity
  8
MECHANICAL1
100
AcDb2dPolyline
 66
     1
 10
0.0
 20
0.0
 30
0.0
 40
0.01
 41
0.01
 75
     8
  0
VERTEX
  5
A3A
100
AcDbEntity
  8
MECHANICAL1
100
AcDbVertex
100
AcDb2dVertex
 10
10.97343
 20
8.906336
 30
0.0
  0
VERTEX
  5
A3B
100
AcDbEntity
  8
MECHANICAL1
100
AcDbVertex
100
AcDb2dVertex
 10
10.98457
 20
8.889726
 30
0.0
  0
SEQEND
  5
A3C
100
AcDbEntity
  8
0
  0
POLYLINE
  5
A3D
100
AcDbEntity
  8
MECHANICAL1
100
AcDb2dPolyline
 66
     1
 10
0.0
 20
0.0
 30
0.0
 70
     1
 40
0.005
 41
0.005
 75
     8
  0
VERTEX
  5
A3E
100
AcDbEntity
  8
MECHANICAL1
100
AcDbVertex
100
AcDb2dVertex
 10
10.97093
 20
8.906336
 30
0.0
 42
1.0
  0
VERTEX
  5
A3F
100
AcDbEntity
  8
MECHANICAL1
100
AcDbVertex
100
AcDb2dVertex
 10
10.97593
 20
8.906336
 30
0.0
 42
1.0
  0
SEQEND
  5
A40
100
AcDbEntity
  8
0
  0
POLYLINE
  5
A41
100
AcDbEntity
  8
MECHANICAL1
100
AcDb2dPolyline
 66
     1
 10
0.0
 20
0.0
 30
0.0
 70
     1
 40
0.005
 41
0.005
 75
     8
  0
VERTEX
  5
A42
100
AcDbEntity
  8
MECHANICAL1
100
AcDbVertex
100
AcDb2dVertex
 10
10.98207
 20
8.889726
 30
0.0
 42
1.0
  0
VERTEX
  5
A43
100
AcDbEntity
  8
MECHANICAL1
100
AcDbVertex
100
AcDb2dVertex
 10
10.98707
 20
8.889726
 30
0.0
 42
1.0
  0
SEQEND
  5
A44
100
AcDbEntity
  8
0
  0
POLYLINE
  5
A45
100
AcDbEntity
  8
MECHANICAL1
100
AcDb2dPolyline
 66
     1
 10
0.0
 20
0.0
 30
0.0
 40
0.01
 41
0.01
 75
     8
  0
VERTEX
  5
A46
100
AcDbEntity
  8
MECHANICAL1
100
AcDbVertex
100
AcDb2dVertex
 10
7.99443
 20
6.908305
 30
0.0
  0
VERTEX
  5
A47
100
AcDbEntity
  8
MECHANICAL1
100
AcDbVertex
100
AcDb2dVertex
 10
8.00557
 20
6.891695
 30
0.0
  0
SEQEND
  5
A48
100
AcDbEntity
  8
0
  0
POLYLINE
  5
A49
100
AcDbEntity
  8
MECHANICAL1
100
AcDb2dPolyline
 66
     1
 10
0.0
 20
0.0
 30
0.0
 70
     1
 40
0.005
 41
0.005
 75
     8
  0
VERTEX
  5
A4A
100
AcDbEntity
  8
MECHANICAL1
100
AcDbVertex
100
AcDb2dVertex
 10
7.99193
 20
6.908305
 30
0.0
 42
1.0
  0
VERTEX
  5
A4B
100
AcDbEntity
  8
MECHANICAL1
100
AcDbVertex
100
AcDb2dVertex
 10
7.99693
 20
6.908305
 30
0.0
 42
1.0
  0
SEQEND
  5
A4C
100
AcDbEntity
  8
0
  0
POLYLINE
  5
A4D
100
AcDbEntity
  8
MECHANICAL1
100
AcDb2dPolyline
 66
     1
 10
0.0
 20
0.0
 30
0.0
 70
     1
 40
0.005
 41
0.005
 75
     8
  0
VERTEX
  5
A4E
100
AcDbEntity
  8
MECHANICAL1
100
AcDbVertex
100
AcDb2dVertex
 10
8.00307
 20
6.891695
 30
0.0
 42
1.0
  0
VERTEX
  5
A4F
100
AcDbEntity
  8
MECHANICAL1
100
AcDbVertex
100
AcDb2dVertex
 10
8.00807
 20
6.891695
 30
0.0
 42
1.0
  0
SEQEND
  5
A50
100
AcDbEntity
  8
0
  0
POLYLINE
  5
A51
100
AcDbEntity
  8
MECHANICAL1
100
AcDb2dPolyline
 66
     1
 10
0.0
 20
0.0
 30
0.0
 40
0.01
 41
0.01
 75
     8
  0
VERTEX
  5
A52
100
AcDbEntity
  8
MECHANICAL1
100
AcDbVertex
100
AcDb2dVertex
 10
10.940311
 20
8.848
 30
0.0
  0
VERTEX
  5
A53
100
AcDbEntity
  8
MECHANICAL1
100
AcDbVertex
100
AcDb2dVertex
 10
10.979
 20
8.898031
 30
0.0
  0
SEQEND
  5
A54
100
AcDbEntity
  8
0
  0
POLYLINE
  5
A55
100
AcDbEntity
  8
MECHANICAL1
100
AcDb2dPolyline
 66
     1
 10
0.0
 20
0.0
 30
0.0
 70
     1
 40
0.005
 41
0.005
 75
     8
  0
VERTEX
  5
A56
100
AcDbEntity
  8
MECHANICAL1
100
AcDbVertex
100
AcDb2dVertex
 10
10.93781
 20
8.848
 30
0.0
 42
1.0
  0
VERTEX
  5
A57
100
AcDbEntity
  8
MECHANICAL1
100
AcDbVertex
100
AcDb2dVertex
 10
10.942811
 20
8.848
 30
0.0
 42
1.0
  0
SEQEND
  5
A58
100
AcDbEntity
  8
0
  0
POLYLINE
  5
A59
100
AcDbEntity
  8
MECHANICAL1
100
AcDb2dPolyline
 66
     1
 10
0.0
 20
0.0
 30
0.0
 70
     1
 40
0.005
 41
0.005
 75
     8
  0
VERTEX
  5
A5A
100
AcDbEntity
  8
MECHANICAL1
100
AcDbVertex
100
AcDb2dVertex
 10
10.9765
 20
8.898031
 30
0.0
 42
1.0
  0
VERTEX
  5
A5B
100
AcDbEntity
  8
MECHANICAL1
100
AcDbVertex
100
AcDb2dVertex
 10
10.9815
 20
8.898031
 30
0.0
 42
1.0
  0
SEQEND
  5
A5C
100
AcDbEntity
  8
0
  0
POLYLINE
  5
A5D
100
AcDbEntity
  8
MECHANICAL1
100
AcDb2dPolyline
 66
     1
 10
0.0
 20
0.0
 30
0.0
 40
0.01
 41
0.01
 75
     8
  0
VERTEX
  5
A5E
100
AcDbEntity
  8
MECHANICAL1
100
AcDbVertex
100
AcDb2dVertex
 10
10.91803
 20
8.88122
 30
0.0
  0
VERTEX
  5
A5F
100
AcDbEntity
  8
MECHANICAL1
100
AcDbVertex
100
AcDb2dVertex
 10
10.979
 20
8.898031
 30
0.0
  0
SEQEND
  5
A60
100
AcDbEntity
  8
0
  0
POLYLINE
  5
A61
100
AcDbEntity
  8
MECHANICAL1
100
AcDb2dPolyline
 66
     1
 10
0.0
 20
0.0
 30
0.0
 70
     1
 40
0.005
 41
0.005
 75
     8
  0
VERTEX
  5
A62
100
AcDbEntity
  8
MECHANICAL1
100
AcDbVertex
100
AcDb2dVertex
 10
10.91553
 20
8.88122
 30
0.0
 42
1.0
  0
VERTEX
  5
A63
100
AcDbEntity
  8
MECHANICAL1
100
AcDbVertex
100
AcDb2dVertex
 10
10.92053
 20
8.88122
 30
0.0
 42
1.0
  0
SEQEND
  5
A64
100
AcDbEntity
  8
0
  0
POLYLINE
  5
A65
100
AcDbEntity
  8
MECHANICAL1
100
AcDb2dPolyline
 66
     1
 10
0.0
 20
0.0
 30
0.0
 70
     1
 40
0.005
 41
0.005
 75
     8
  0
VERTEX
  5
A66
100
AcDbEntity
  8
MECHANICAL1
100
AcDbVertex
100
AcDb2dVertex
 10
10.9765
 20
8.898031
 30
0.0
 42
1.0
  0
VERTEX
  5
A67
100
AcDbEntity
  8
MECHANICAL1
100
AcDbVertex
100
AcDb2dVertex
 10
10.9815
 20
8.898031
 30
0.0
 42
1.0
  0
SEQEND
  5
A68
100
AcDbEntity
  8
0
  0
POLYLINE
  5
A69
100
AcDbEntity
  8
MECHANICAL1
100
AcDb2dPolyline
 66
     1
 10
0.0
 20
0.0
 30
0.0
 40
0.01
 41
0.01
 75
     8
  0
VERTEX
  5
A6A
100
AcDbEntity
  8
MECHANICAL1
100
AcDbVertex
100
AcDb2dVertex
 10
8.0
 20
6.9
 30
0.0
  0
VERTEX
  5
A6B
100
AcDbEntity
  8
MECHANICAL1
100
AcDbVertex
100
AcDb2dVertex
 10
8.06097
 20
6.916811
 30
0.0
  0
SEQEND
  5
A6C
100
AcDbEntity
  8
0
  0
POLYLINE
  5
A6D
100
AcDbEntity
  8
MECHANICAL1
100
AcDb2dPolyline
 66
     1
 10
0.0
 20
0.0
 30
0.0
 70
     1
 40
0.005
 41
0.005
 75
     8
  0
VERTEX
  5
A6E
100
AcDbEntity
  8
MECHANICAL1
100
AcDbVertex
100
AcDb2dVertex
 10
7.9975
 20
6.9
 30
0.0
 42
1.0
  0
VERTEX
  5
A6F
100
AcDbEntity
  8
MECHANICAL1
100
AcDbVertex
100
AcDb2dVertex
 10
8.0025
 20
6.9
 30
0.0
 42
1.0
  0
SEQEND
  5
A70
100
AcDbEntity
  8
0
  0
POLYLINE
  5
A71
100
AcDbEntity
  8
MECHANICAL1
100
AcDb2dPolyline
 66
     1
 10
0.0
 20
0.0
 30
0.0
 70
     1
 40
0.005
 41
0.005
 75
     8
  0
VERTEX
  5
A72
100
AcDbEntity
  8
MECHANICAL1
100
AcDbVertex
100
AcDb2dVertex
 10
8.05847
 20
6.916811
 30
0.0
 42
1.0
  0
VERTEX
  5
A73
100
AcDbEntity
  8
MECHANICAL1
100
AcDbVertex
100
AcDb2dVertex
 10
8.06347
 20
6.916811
 30
0.0
 42
1.0
  0
SEQEND
  5
A74
100
AcDbEntity
  8
0
  0
POLYLINE
  5
A75
100
AcDbEntity
  8
MECHANICAL1
100
AcDb2dPolyline
 66
     1
 10
0.0
 20
0.0
 30
0.0
 40
0.01
 41
0.01
 75
     8
  0
VERTEX
  5
A76
100
AcDbEntity
  8
MECHANICAL1
100
AcDbVertex
100
AcDb2dVertex
 10
8.0
 20
6.9
 30
0.0
  0
VERTEX
  5
A77
100
AcDbEntity
  8
MECHANICAL1
100
AcDbVertex
100
AcDb2dVertex
 10
8.03869
 20
6.950031
 30
0.0
  0
SEQEND
  5
A78
100
AcDbEntity
  8
0
  0
POLYLINE
  5
A79
100
AcDbEntity
  8
MECHANICAL1
100
AcDb2dPolyline
 66
     1
 10
0.0
 20
0.0
 30
0.0
 70
     1
 40
0.005
 41
0.005
 75
     8
  0
VERTEX
  5
A7A
100
AcDbEntity
  8
MECHANICAL1
100
AcDbVertex
100
AcDb2dVertex
 10
7.9975
 20
6.9
 30
0.0
 42
1.0
  0
VERTEX
  5
A7B
100
AcDbEntity
  8
MECHANICAL1
100
AcDbVertex
100
AcDb2dVertex
 10
8.0025
 20
6.9
 30
0.0
 42
1.0
  0
SEQEND
  5
A7C
100
AcDbEntity
  8
0
  0
POLYLINE
  5
A7D
100
AcDbEntity
  8
MECHANICAL1
100
AcDb2dPolyline
 66
     1
 10
0.0
 20
0.0
 30
0.0
 70
     1
 40
0.005
 41
0.005
 75
     8
  0
VERTEX
  5
A7E
100
AcDbEntity
  8
MECHANICAL1
100
AcDbVertex
100
AcDb2dVertex
 10
8.03619
 20
6.950031
 30
0.0
 42
1.0
  0
VERTEX
  5
A7F
100
AcDbEntity
  8
MECHANICAL1
100
AcDbVertex
100
AcDb2dVertex
 10
8.041189
 20
6.950031
 30
0.0
 42
1.0
  0
SEQEND
  5
A80
100
AcDbEntity
  8
0
  0
POLYLINE
  5
A81
100
AcDbEntity
  8
MECHANICAL1
100
AcDb2dPolyline
 66
     1
 10
0.0
 20
0.0
 30
0.0
 40
0.01
 41
0.01
 75
     8
  0
VERTEX
  5
A82
100
AcDbEntity
  8
MECHANICAL1
100
AcDbVertex
100
AcDb2dVertex
 10
9.594113
 20
7.96918
 30
0.0
  0
VERTEX
  5
A83
100
AcDbEntity
  8
MECHANICAL1
100
AcDbVertex
100
AcDb2dVertex
 10
10.979
 20
8.898031
 30
0.0
  0
SEQEND
  5
A84
100
AcDbEntity
  8
0
  0
POLYLINE
  5
A85
100
AcDbEntity
  8
MECHANICAL1
100
AcDb2dPolyline
 66
     1
 10
0.0
 20
0.0
 30
0.0
 70
     1
 40
0.005
 41
0.005
 75
     8
  0
VERTEX
  5
A86
100
AcDbEntity
  8
MECHANICAL1
100
AcDbVertex
100
AcDb2dVertex
 10
9.591613
 20
7.96918
 30
0.0
 42
1.0
  0
VERTEX
  5
A87
100
AcDbEntity
  8
MECHANICAL1
100
AcDbVertex
100
AcDb2dVertex
 10
9.596613
 20
7.96918
 30
0.0
 42
1.0
  0
SEQEND
  5
A88
100
AcDbEntity
  8
0
  0
POLYLINE
  5
A89
100
AcDbEntity
  8
MECHANICAL1
100
AcDb2dPolyline
 66
     1
 10
0.0
 20
0.0
 30
0.0
 70
     1
 40
0.005
 41
0.005
 75
     8
  0
VERTEX
  5
A8A
100
AcDbEntity
  8
MECHANICAL1
100
AcDbVertex
100
AcDb2dVertex
 10
10.9765
 20
8.898031
 30
0.0
 42
1.0
  0
VERTEX
  5
A8B
100
AcDbEntity
  8
MECHANICAL1
100
AcDbVertex
100
AcDb2dVertex
 10
10.9815
 20
8.898031
 30
0.0
 42
1.0
  0
SEQEND
  5
A8C
100
AcDbEntity
  8
0
  0
POLYLINE
  5
A8D
100
AcDbEntity
  8
MECHANICAL1
100
AcDb2dPolyline
 66
     1
 10
0.0
 20
0.0
 30
0.0
 40
0.01
 41
0.01
 75
     8
  0
VERTEX
  5
A8E
100
AcDbEntity
  8
MECHANICAL1
100
AcDbVertex
100
AcDb2dVertex
 10
8.0
 20
6.9
 30
0.0
  0
VERTEX
  5
A8F
100
AcDbEntity
  8
MECHANICAL1
100
AcDbVertex
100
AcDb2dVertex
 10
9.384887
 20
7.828851
 30
0.0
  0
SEQEND
  5
A90
100
AcDbEntity
  8
0
  0
POLYLINE
  5
A91
100
AcDbEntity
  8
MECHANICAL1
100
AcDb2dPolyline
 66
     1
 10
0.0
 20
0.0
 30
0.0
 70
     1
 40
0.005
 41
0.005
 75
     8
  0
VERTEX
  5
A92
100
AcDbEntity
  8
MECHANICAL1
100
AcDbVertex
100
AcDb2dVertex
 10
7.9975
 20
6.9
 30
0.0
 42
1.0
  0
VERTEX
  5
A93
100
AcDbEntity
  8
MECHANICAL1
100
AcDbVertex
100
AcDb2dVertex
 10
8.0025
 20
6.9
 30
0.0
 42
1.0
  0
SEQEND
  5
A94
100
AcDbEntity
  8
0
  0
POLYLINE
  5
A95
100
AcDbEntity
  8
MECHANICAL1
100
AcDb2dPolyline
 66
     1
 10
0.0
 20
0.0
 30
0.0
 70
     1
 40
0.005
 41
0.005
 75
     8
  0
VERTEX
  5
A96
100
AcDbEntity
  8
MECHANICAL1
100
AcDbVertex
100
AcDb2dVertex
 10
9.382387
 20
7.828851
 30
0.0
 42
1.0
  0
VERTEX
  5
A97
100
AcDbEntity
  8
MECHANICAL1
100
AcDbVertex
100
AcDb2dVertex
 10
9.387387
 20
7.828851
 30
0.0
 42
1.0
  0
SEQEND
  5
A98
100
AcDbEntity
  8
0
  0
POLYLINE
  5
A99
100
AcDbEntity
  8
MECHANICAL1
100
AcDb2dPolyline
 66
     1
 10
0.0
 20
0.0
 30
0.0
 40
0.01
 41
0.01
 75
     8
  0
VERTEX
  5
A9A
100
AcDbEntity
  8
MECHANICAL1
100
AcDbVertex
100
AcDb2dVertex
 10
10.000069
 20
9.521075
 30
0.0
  0
VERTEX
  5
A9B
100
AcDbEntity
  8
MECHANICAL1
100
AcDbVertex
100
AcDb2dVertex
 10
10.015931
 20
9.508895
 30
0.0
  0
SEQEND
  5
A9C
100
AcDbEntity
  8
0
  0
POLYLINE
  5
A9D
100
AcDbEntity
  8
MECHANICAL1
100
AcDb2dPolyline
 66
     1
 10
0.0
 20
0.0
 30
0.0
 70
     1
 40
0.005
 41
0.005
 75
     8
  0
VERTEX
  5
A9E
100
AcDbEntity
  8
MECHANICAL1
100
AcDbVertex
100
AcDb2dVertex
 10
9.997569
 20
9.521075
 30
0.0
 42
1.0
  0
VERTEX
  5
A9F
100
AcDbEntity
  8
MECHANICAL1
100
AcDbVertex
100
AcDb2dVertex
 10
10.002569
 20
9.521075
 30
0.0
 42
1.0
  0
SEQEND
  5
AA0
100
AcDbEntity
  8
0
  0
POLYLINE
  5
AA1
100
AcDbEntity
  8
MECHANICAL1
100
AcDb2dPolyline
 66
     1
 10
0.0
 20
0.0
 30
0.0
 70
     1
 40
0.005
 41
0.005
 75
     8
  0
VERTEX
  5
AA2
100
AcDbEntity
  8
MECHANICAL1
100
AcDbVertex
100
AcDb2dVertex
 10
10.013431
 20
9.508895
 30
0.0
 42
1.0
  0
VERTEX
  5
AA3
100
AcDbEntity
  8
MECHANICAL1
100
AcDbVertex
100
AcDb2dVertex
 10
10.018431
 20
9.508895
 30
0.0
 42
1.0
  0
SEQEND
  5
AA4
100
AcDbEntity
  8
0
  0
POLYLINE
  5
AA5
100
AcDbEntity
  8
MECHANICAL1
100
AcDb2dPolyline
 66
     1
 10
0.0
 20
0.0
 30
0.0
 40
0.01
 41
0.01
 75
     8
  0
VERTEX
  5
AA6
100
AcDbEntity
  8
MECHANICAL1
100
AcDbVertex
100
AcDb2dVertex
 10
7.992069
 20
6.90609
 30
0.0
  0
VERTEX
  5
AA7
100
AcDbEntity
  8
MECHANICAL1
100
AcDbVertex
100
AcDb2dVertex
 10
8.007931
 20
6.89391
 30
0.0
  0
SEQEND
  5
AA8
100
AcDbEntity
  8
0
  0
POLYLINE
  5
AA9
100
AcDbEntity
  8
MECHANICAL1
100
AcDb2dPolyline
 66
     1
 10
0.0
 20
0.0
 30
0.0
 70
     1
 40
0.005
 41
0.005
 75
     8
  0
VERTEX
  5
AAA
100
AcDbEntity
  8
MECHANICAL1
100
AcDbVertex
100
AcDb2dVertex
 10
7.989569
 20
6.90609
 30
0.0
 42
1.0
  0
VERTEX
  5
AAB
100
AcDbEntity
  8
MECHANICAL1
100
AcDbVertex
100
AcDb2dVertex
 10
7.994569
 20
6.90609
 30
0.0
 42
1.0
  0
SEQEND
  5
AAC
100
AcDbEntity
  8
0
  0
POLYLINE
  5
AAD
100
AcDbEntity
  8
MECHANICAL1
100
AcDb2dPolyline
 66
     1
 10
0.0
 20
0.0
 30
0.0
 70
     1
 40
0.005
 41
0.005
 75
     8
  0
VERTEX
  5
AAE
100
AcDbEntity
  8
MECHANICAL1
100
AcDbVertex
100
AcDb2dVertex
 10
8.005431
 20
6.89391
 30
0.0
 42
1.0
  0
VERTEX
  5
AAF
100
AcDbEntity
  8
MECHANICAL1
100
AcDbVertex
100
AcDb2dVertex
 10
8.010431
 20
6.89391
 30
0.0
 42
1.0
  0
SEQEND
  5
AB0
100
AcDbEntity
  8
0
  0
POLYLINE
  5
AB1
100
AcDbEntity
  8
MECHANICAL1
100
AcDb2dPolyline
 66
     1
 10
0.0
 20
0.0
 30
0.0
 40
0.01
 41
0.01
 75
     8
  0
VERTEX
  5
AB2
100
AcDbEntity
  8
MECHANICAL1
100
AcDbVertex
100
AcDb2dVertex
 10
9.98732
 20
9.455216
 30
0.0
  0
VERTEX
  5
AB3
100
AcDbEntity
  8
MECHANICAL1
100
AcDbVertex
100
AcDb2dVertex
 10
10.008
 20
9.514985
 30
0.0
  0
SEQEND
  5
AB4
100
AcDbEntity
  8
0
  0
POLYLINE
  5
AB5
100
AcDbEntity
  8
MECHANICAL1
100
AcDb2dPolyline
 66
     1
 10
0.0
 20
0.0
 30
0.0
 70
     1
 40
0.005
 41
0.005
 75
     8
  0
VERTEX
  5
AB6
100
AcDbEntity
  8
MECHANICAL1
100
AcDbVertex
100
AcDb2dVertex
 10
9.98482
 20
9.455216
 30
0.0
 42
1.0
  0
VERTEX
  5
AB7
100
AcDbEntity
  8
MECHANICAL1
100
AcDbVertex
100
AcDb2dVertex
 10
9.989821
 20
9.455216
 30
0.0
 42
1.0
  0
SEQEND
  5
AB8
100
AcDbEntity
  8
0
  0
POLYLINE
  5
AB9
100
AcDbEntity
  8
MECHANICAL1
100
AcDb2dPolyline
 66
     1
 10
0.0
 20
0.0
 30
0.0
 70
     1
 40
0.005
 41
0.005
 75
     8
  0
VERTEX
  5
ABA
100
AcDbEntity
  8
MECHANICAL1
100
AcDbVertex
100
AcDb2dVertex
 10
10.0055
 20
9.514985
 30
0.0
 42
1.0
  0
VERTEX
  5
ABB
100
AcDbEntity
  8
MECHANICAL1
100
AcDbVertex
100
AcDb2dVertex
 10
10.0105
 20
9.514985
 30
0.0
 42
1.0
  0
SEQEND
  5
ABC
100
AcDbEntity
  8
0
  0
POLYLINE
  5
ABD
100
AcDbEntity
  8
MECHANICAL1
100
AcDb2dPolyline
 66
     1
 10
0.0
 20
0.0
 30
0.0
 40
0.01
 41
0.01
 75
     8
  0
VERTEX
  5
ABE
100
AcDbEntity
  8
MECHANICAL1
100
AcDbVertex
100
AcDb2dVertex
 10
9.955595
 20
9.479577
 30
0.0
  0
VERTEX
  5
ABF
100
AcDbEntity
  8
MECHANICAL1
100
AcDbVertex
100
AcDb2dVertex
 10
10.008
 20
9.514985
 30
0.0
  0
SEQEND
  5
AC0
100
AcDbEntity
  8
0
  0
POLYLINE
  5
AC1
100
AcDbEntity
  8
MECHANICAL1
100
AcDb2dPolyline
 66
     1
 10
0.0
 20
0.0
 30
0.0
 70
     1
 40
0.005
 41
0.005
 75
     8
  0
VERTEX
  5
AC2
100
AcDbEntity
  8
MECHANICAL1
100
AcDbVertex
100
AcDb2dVertex
 10
9.953095
 20
9.479577
 30
0.0
 42
1.0
  0
VERTEX
  5
AC3
100
AcDbEntity
  8
MECHANICAL1
100
AcDbVertex
100
AcDb2dVertex
 10
9.958095
 20
9.479577
 30
0.0
 42
1.0
  0
SEQEND
  5
AC4
100
AcDbEntity
  8
0
  0
POLYLINE
  5
AC5
100
AcDbEntity
  8
MECHANICAL1
100
AcDb2dPolyline
 66
     1
 10
0.0
 20
0.0
 30
0.0
 70
     1
 40
0.005
 41
0.005
 75
     8
  0
VERTEX
  5
AC6
100
AcDbEntity
  8
MECHANICAL1
100
AcDbVertex
100
AcDb2dVertex
 10
10.0055
 20
9.514985
 30
0.0
 42
1.0
  0
VERTEX
  5
AC7
100
AcDbEntity
  8
MECHANICAL1
100
AcDbVertex
100
AcDb2dVertex
 10
10.0105
 20
9.514985
 30
0.0
 42
1.0
  0
SEQEND
  5
AC8
100
AcDbEntity
  8
0
  0
POLYLINE
  5
AC9
100
AcDbEntity
  8
MECHANICAL1
100
AcDb2dPolyline
 66
     1
 10
0.0
 20
0.0
 30
0.0
 40
0.01
 41
0.01
 75
     8
  0
VERTEX
  5
ACA
100
AcDbEntity
  8
MECHANICAL1
100
AcDbVertex
100
AcDb2dVertex
 10
8.0
 20
6.9
 30
0.0
  0
VERTEX
  5
ACB
100
AcDbEntity
  8
MECHANICAL1
100
AcDbVertex
100
AcDb2dVertex
 10
8.052405
 20
6.935408
 30
0.0
  0
SEQEND
  5
ACC
100
AcDbEntity
  8
0
  0
POLYLINE
  5
ACD
100
AcDbEntity
  8
MECHANICAL1
100
AcDb2dPolyline
 66
     1
 10
0.0
 20
0.0
 30
0.0
 70
     1
 40
0.005
 41
0.005
 75
     8
  0
VERTEX
  5
ACE
100
AcDbEntity
  8
MECHANICAL1
100
AcDbVertex
100
AcDb2dVertex
 10
7.9975
 20
6.9
 30
0.0
 42
1.0
  0
VERTEX
  5
ACF
100
AcDbEntity
  8
MECHANICAL1
100
AcDbVertex
100
AcDb2dVertex
 10
8.0025
 20
6.9
 30
0.0
 42
1.0
  0
SEQEND
  5
AD0
100
AcDbEntity
  8
0
  0
POLYLINE
  5
AD1
100
AcDbEntity
  8
MECHANICAL1
100
AcDb2dPolyline
 66
     1
 10
0.0
 20
0.0
 30
0.0
 70
     1
 40
0.005
 41
0.005
 75
     8
  0
VERTEX
  5
AD2
100
AcDbEntity
  8
MECHANICAL1
100
AcDbVertex
100
AcDb2dVertex
 10
8.049905
 20
6.935408
 30
0.0
 42
1.0
  0
VERTEX
  5
AD3
100
AcDbEntity
  8
MECHANICAL1
100
AcDbVertex
100
AcDb2dVertex
 10
8.054905
 20
6.935408
 30
0.0
 42
1.0
  0
SEQEND
  5
AD4
100
AcDbEntity
  8
0
  0
POLYLINE
  5
AD5
100
AcDbEntity
  8
MECHANICAL1
100
AcDb2dPolyline
 66
     1
 10
0.0
 20
0.0
 30
0.0
 40
0.01
 41
0.01
 75
     8
  0
VERTEX
  5
AD6
100
AcDbEntity
  8
MECHANICAL1
100
AcDbVertex
100
AcDb2dVertex
 10
8.0
 20
6.9
 30
0.0
  0
VERTEX
  5
AD7
100
AcDbEntity
  8
MECHANICAL1
100
AcDbVertex
100
AcDb2dVertex
 10
8.020679
 20
6.959769
 30
0.0
  0
SEQEND
  5
AD8
100
AcDbEntity
  8
0
  0
POLYLINE
  5
AD9
100
AcDbEntity
  8
MECHANICAL1
100
AcDb2dPolyline
 66
     1
 10
0.0
 20
0.0
 30
0.0
 70
     1
 40
0.005
 41
0.005
 75
     8
  0
VERTEX
  5
ADA
100
AcDbEntity
  8
MECHANICAL1
100
AcDbVertex
100
AcDb2dVertex
 10
7.9975
 20
6.9
 30
0.0
 42
1.0
  0
VERTEX
  5
ADB
100
AcDbEntity
  8
MECHANICAL1
100
AcDbVertex
100
AcDb2dVertex
 10
8.0025
 20
6.9
 30
0.0
 42
1.0
  0
SEQEND
  5
ADC
100
AcDbEntity
  8
0
  0
POLYLINE
  5
ADD
100
AcDbEntity
  8
MECHANICAL1
100
AcDb2dPolyline
 66
     1
 10
0.0
 20
0.0
 30
0.0
 70
     1
 40
0.005
 41
0.005
 75
     8
  0
VERTEX
  5
ADE
100
AcDbEntity
  8
MECHANICAL1
100
AcDbVertex
100
AcDb2dVertex
 10
8.01818
 20
6.959769
 30
0.0
 42
1.0
  0
VERTEX
  5
ADF
100
AcDbEntity
  8
MECHANICAL1
100
AcDbVertex
100
AcDb2dVertex
 10
8.023179
 20
6.959769
 30
0.0
 42
1.0
  0
SEQEND
  5
AE0
100
AcDbEntity
  8
0
  0
POLYLINE
  5
AE1
100
AcDbEntity
  8
MECHANICAL1
100
AcDb2dPolyline
 66
     1
 10
0.0
 20
0.0
 30
0.0
 40
0.01
 41
0.01
 75
     8
  0
VERTEX
  5
AE2
100
AcDbEntity
  8
MECHANICAL1
100
AcDbVertex
100
AcDb2dVertex
 10
9.080717
 20
8.3074
 30
0.0
  0
VERTEX
  5
AE3
100
AcDbEntity
  8
MECHANICAL1
100
AcDbVertex
100
AcDb2dVertex
 10
10.008
 20
9.514985
 30
0.0
  0
SEQEND
  5
AE4
100
AcDbEntity
  8
0
  0
POLYLINE
  5
AE5
100
AcDbEntity
  8
MECHANICAL1
100
AcDb2dPolyline
 66
     1
 10
0.0
 20
0.0
 30
0.0
 70
     1
 40
0.005
 41
0.005
 75
     8
  0
VERTEX
  5
AE6
100
AcDbEntity
  8
MECHANICAL1
100
AcDbVertex
100
AcDb2dVertex
 10
9.078217
 20
8.3074
 30
0.0
 42
1.0
  0
VERTEX
  5
AE7
100
AcDbEntity
  8
MECHANICAL1
100
AcDbVertex
100
AcDb2dVertex
 10
9.083217
 20
8.3074
 30
0.0
 42
1.0
  0
SEQEND
  5
AE8
100
AcDbEntity
  8
0
  0
POLYLINE
  5
AE9
100
AcDbEntity
  8
MECHANICAL1
100
AcDb2dPolyline
 66
     1
 10
0.0
 20
0.0
 30
0.0
 70
     1
 40
0.005
 41
0.005
 75
     8
  0
VERTEX
  5
AEA
100
AcDbEntity
  8
MECHANICAL1
100
AcDbVertex
100
AcDb2dVertex
 10
10.0055
 20
9.514985
 30
0.0
 42
1.0
  0
VERTEX
  5
AEB
100
AcDbEntity
  8
MECHANICAL1
100
AcDbVertex
100
AcDb2dVertex
 10
10.0105
 20
9.514985
 30
0.0
 42
1.0
  0
SEQEND
  5
AEC
100
AcDbEntity
  8
0
  0
POLYLINE
  5
AED
100
AcDbEntity
  8
MECHANICAL1
100
AcDb2dPolyline
 66
     1
 10
0.0
 20
0.0
 30
0.0
 40
0.01
 41
0.01
 75
     8
  0
VERTEX
  5
AEE
100
AcDbEntity
  8
MECHANICAL1
100
AcDbVertex
100
AcDb2dVertex
 10
8.0
 20
6.9
 30
0.0
  0
VERTEX
  5
AEF
100
AcDbEntity
  8
MECHANICAL1
100
AcDbVertex
100
AcDb2dVertex
 10
8.927283
 20
8.107585
 30
0.0
  0
SEQEND
  5
AF0
100
AcDbEntity
  8
0
  0
POLYLINE
  5
AF1
100
AcDbEntity
  8
MECHANICAL1
100
AcDb2dPolyline
 66
     1
 10
0.0
 20
0.0
 30
0.0
 70
     1
 40
0.005
 41
0.005
 75
     8
  0
VERTEX
  5
AF2
100
AcDbEntity
  8
MECHANICAL1
100
AcDbVertex
100
AcDb2dVertex
 10
7.9975
 20
6.9
 30
0.0
 42
1.0
  0
VERTEX
  5
AF3
100
AcDbEntity
  8
MECHANICAL1
100
AcDbVertex
100
AcDb2dVertex
 10
8.0025
 20
6.9
 30
0.0
 42
1.0
  0
SEQEND
  5
AF4
100
AcDbEntity
  8
0
  0
POLYLINE
  5
AF5
100
AcDbEntity
  8
MECHANICAL1
100
AcDb2dPolyline
 66
     1
 10
0.0
 20
0.0
 30
0.0
 70
     1
 40
0.005
 41
0.005
 75
     8
  0
VERTEX
  5
AF6
100
AcDbEntity
  8
MECHANICAL1
100
AcDbVertex
100
AcDb2dVertex
 10
8.924783
 20
8.107585
 30
0.0
 42
1.0
  0
VERTEX
  5
AF7
100
AcDbEntity
  8
MECHANICAL1
100
AcDbVertex
100
AcDb2dVertex
 10
8.929783
 20
8.107585
 30
0.0
 42
1.0
  0
SEQEND
  5
AF8
100
AcDbEntity
  8
0
  0
POLYLINE
  5
AF9
100
AcDbEntity
  8
MECHANICAL1
100
AcDb2dPolyline
 66
     1
 10
0.0
 20
0.0
 30
0.0
 40
0.01
 41
0.01
 75
     8
  0
VERTEX
  5
AFA
100
AcDbEntity
  8
MECHANICAL1
100
AcDbVertex
100
AcDb2dVertex
 10
7.992914
 20
7.107056
 30
0.0
  0
VERTEX
  5
AFB
100
AcDbEntity
  8
MECHANICAL1
100
AcDbVertex
100
AcDb2dVertex
 10
8.007087
 20
7.092944
 30
0.0
  0
SEQEND
  5
AFC
100
AcDbEntity
  8
0
  0
POLYLINE
  5
AFD
100
AcDbEntity
  8
MECHANICAL1
100
AcDb2dPolyline
 66
     1
 10
0.0
 20
0.0
 30
0.0
 70
     1
 40
0.005
 41
0.005
 75
     8
  0
VERTEX
  5
AFE
100
AcDbEntity
  8
MECHANICAL1
100
AcDbVertex
100
AcDb2dVertex
 10
7.990413
 20
7.107056
 30
0.0
 42
1.0
  0
VERTEX
  5
AFF
100
AcDbEntity
  8
MECHANICAL1
100
AcDbVertex
100
AcDb2dVertex
 10
7.995413
 20
7.107056
 30
0.0
 42
1.0
  0
SEQEND
  5
B00
100
AcDbEntity
  8
0
  0
POLYLINE
  5
B01
100
AcDbEntity
  8
MECHANICAL1
100
AcDb2dPolyline
 66
     1
 10
0.0
 20
0.0
 30
0.0
 70
     1
 40
0.005
 41
0.005
 75
     8
  0
VERTEX
  5
B02
100
AcDbEntity
  8
MECHANICAL1
100
AcDbVertex
100
AcDb2dVertex
 10
8.004587
 20
7.092944
 30
0.0
 42
1.0
  0
VERTEX
  5
B03
100
AcDbEntity
  8
MECHANICAL1
100
AcDbVertex
100
AcDb2dVertex
 10
8.009587
 20
7.092944
 30
0.0
 42
1.0
  0
SEQEND
  5
B04
100
AcDbEntity
  8
0
  0
POLYLINE
  5
B05
100
AcDbEntity
  8
MECHANICAL1
100
AcDb2dPolyline
 66
     1
 10
0.0
 20
0.0
 30
0.0
 40
0.01
 41
0.01
 75
     8
  0
VERTEX
  5
B06
100
AcDbEntity
  8
MECHANICAL1
100
AcDbVertex
100
AcDb2dVertex
 10
5.452914
 20
4.555899
 30
0.0
  0
VERTEX
  5
B07
100
AcDbEntity
  8
MECHANICAL1
100
AcDbVertex
100
AcDb2dVertex
 10
5.467086
 20
4.541787
 30
0.0
  0
SEQEND
  5
B08
100
AcDbEntity
  8
0
  0
POLYLINE
  5
B09
100
AcDbEntity
  8
MECHANICAL1
100
AcDb2dPolyline
 66
     1
 10
0.0
 20
0.0
 30
0.0
 70
     1
 40
0.005
 41
0.005
 75
     8
  0
VERTEX
  5
B0A
100
AcDbEntity
  8
MECHANICAL1
100
AcDbVertex
100
AcDb2dVertex
 10
5.450413
 20
4.555899
 30
0.0
 42
1.0
  0
VERTEX
  5
B0B
100
AcDbEntity
  8
MECHANICAL1
100
AcDbVertex
100
AcDb2dVertex
 10
5.455413
 20
4.555899
 30
0.0
 42
1.0
  0
SEQEND
  5
B0C
100
AcDbEntity
  8
0
  0
POLYLINE
  5
B0D
100
AcDbEntity
  8
MECHANICAL1
100
AcDb2dPolyline
 66
     1
 10
0.0
 20
0.0
 30
0.0
 70
     1
 40
0.005
 41
0.005
 75
     8
  0
VERTEX
  5
B0E
100
AcDbEntity
  8
MECHANICAL1
100
AcDbVertex
100
AcDb2dVertex
 10
5.464587
 20
4.541787
 30
0.0
 42
1.0
  0
VERTEX
  5
B0F
100
AcDbEntity
  8
MECHANICAL1
100
AcDbVertex
100
AcDb2dVertex
 10
5.469587
 20
4.541787
 30
0.0
 42
1.0
  0
SEQEND
  5
B10
100
AcDbEntity
  8
0
  0
POLYLINE
  5
B11
100
AcDbEntity
  8
MECHANICAL1
100
AcDb2dPolyline
 66
     1
 10
0.0
 20
0.0
 30
0.0
 40
0.01
 41
0.01
 75
     8
  0
VERTEX
  5
B12
100
AcDbEntity
  8
MECHANICAL1
100
AcDbVertex
100
AcDb2dVertex
 10
7.97184
 20
7.04337
 30
0.0
  0
VERTEX
  5
B13
100
AcDbEntity
  8
MECHANICAL1
100
AcDbVertex
100
AcDb2dVertex
 10
8.0
 20
7.1
 30
0.0
  0
SEQEND
  5
B14
100
AcDbEntity
  8
0
  0
POLYLINE
  5
B15
100
AcDbEntity
  8
MECHANICAL1
100
AcDb2dPolyline
 66
     1
 10
0.0
 20
0.0
 30
0.0
 70
     1
 40
0.005
 41
0.005
 75
     8
  0
VERTEX
  5
B16
100
AcDbEntity
  8
MECHANICAL1
100
AcDbVertex
100
AcDb2dVertex
 10
7.96934
 20
7.04337
 30
0.0
 42
1.0
  0
VERTEX
  5
B17
100
AcDbEntity
  8
MECHANICAL1
100
AcDbVertex
100
AcDb2dVertex
 10
7.97434
 20
7.04337
 30
0.0
 42
1.0
  0
SEQEND
  5
B18
100
AcDbEntity
  8
0
  0
POLYLINE
  5
B19
100
AcDbEntity
  8
MECHANICAL1
100
AcDb2dPolyline
 66
     1
 10
0.0
 20
0.0
 30
0.0
 70
     1
 40
0.005
 41
0.005
 75
     8
  0
VERTEX
  5
B1A
100
AcDbEntity
  8
MECHANICAL1
100
AcDbVertex
100
AcDb2dVertex
 10
7.9975
 20
7.1
 30
0.0
 42
1.0
  0
VERTEX
  5
B1B
100
AcDbEntity
  8
MECHANICAL1
100
AcDbVertex
100
AcDb2dVertex
 10
8.0025
 20
7.1
 30
0.0
 42
1.0
  0
SEQEND
  5
B1C
100
AcDbEntity
  8
0
  0
POLYLINE
  5
B1D
100
AcDbEntity
  8
MECHANICAL1
100
AcDb2dPolyline
 66
     1
 10
0.0
 20
0.0
 30
0.0
 40
0.01
 41
0.01
 75
     8
  0
VERTEX
  5
B1E
100
AcDbEntity
  8
MECHANICAL1
100
AcDbVertex
100
AcDb2dVertex
 10
7.943494
 20
7.071592
 30
0.0
  0
VERTEX
  5
B1F
100
AcDbEntity
  8
MECHANICAL1
100
AcDbVertex
100
AcDb2dVertex
 10
8.0
 20
7.1
 30
0.0
  0
SEQEND
  5
B20
100
AcDbEntity
  8
0
  0
POLYLINE
  5
B21
100
AcDbEntity
  8
MECHANICAL1
100
AcDb2dPolyline
 66
     1
 10
0.0
 20
0.0
 30
0.0
 70
     1
 40
0.005
 41
0.005
 75
     8
  0
VERTEX
  5
B22
100
AcDbEntity
  8
MECHANICAL1
100
AcDbVertex
100
AcDb2dVertex
 10
7.940994
 20
7.071592
 30
0.0
 42
1.0
  0
VERTEX
  5
B23
100
AcDbEntity
  8
MECHANICAL1
100
AcDbVertex
100
AcDb2dVertex
 10
7.945994
 20
7.071592
 30
0.0
 42
1.0
  0
SEQEND
  5
B24
100
AcDbEntity
  8
0
  0
POLYLINE
  5
B25
100
AcDbEntity
  8
MECHANICAL1
100
AcDb2dPolyline
 66
     1
 10
0.0
 20
0.0
 30
0.0
 70
     1
 40
0.005
 41
0.005
 75
     8
  0
VERTEX
  5
B26
100
AcDbEntity
  8
MECHANICAL1
100
AcDbVertex
100
AcDb2dVertex
 10
7.9975
 20
7.1
 30
0.0
 42
1.0
  0
VERTEX
  5
B27
100
AcDbEntity
  8
MECHANICAL1
100
AcDbVertex
100
AcDb2dVertex
 10
8.0025
 20
7.1
 30
0.0
 42
1.0
  0
SEQEND
  5
B28
100
AcDbEntity
  8
0
  0
POLYLINE
  5
B29
100
AcDbEntity
  8
MECHANICAL1
100
AcDb2dPolyline
 66
     1
 10
0.0
 20
0.0
 30
0.0
 40
0.01
 41
0.01
 75
     8
  0
VERTEX
  5
B2A
100
AcDbEntity
  8
MECHANICAL1
100
AcDbVertex
100
AcDb2dVertex
 10
5.46
 20
4.548843
 30
0.0
  0
VERTEX
  5
B2B
100
AcDbEntity
  8
MECHANICAL1
100
AcDbVertex
100
AcDb2dVertex
 10
5.516506
 20
4.577251
 30
0.0
  0
SEQEND
  5
B2C
100
AcDbEntity
  8
0
  0
POLYLINE
  5
B2D
100
AcDbEntity
  8
MECHANICAL1
100
AcDb2dPolyline
 66
     1
 10
0.0
 20
0.0
 30
0.0
 70
     1
 40
0.005
 41
0.005
 75
     8
  0
VERTEX
  5
B2E
100
AcDbEntity
  8
MECHANICAL1
100
AcDbVertex
100
AcDb2dVertex
 10
5.4575
 20
4.548843
 30
0.0
 42
1.0
  0
VERTEX
  5
B2F
100
AcDbEntity
  8
MECHANICAL1
100
AcDbVertex
100
AcDb2dVertex
 10
5.4625
 20
4.548843
 30
0.0
 42
1.0
  0
SEQEND
  5
B30
100
AcDbEntity
  8
0
  0
POLYLINE
  5
B31
100
AcDbEntity
  8
MECHANICAL1
100
AcDb2dPolyline
 66
     1
 10
0.0
 20
0.0
 30
0.0
 70
     1
 40
0.005
 41
0.005
 75
     8
  0
VERTEX
  5
B32
100
AcDbEntity
  8
MECHANICAL1
100
AcDbVertex
100
AcDb2dVertex
 10
5.514006
 20
4.577251
 30
0.0
 42
1.0
  0
VERTEX
  5
B33
100
AcDbEntity
  8
MECHANICAL1
100
AcDbVertex
100
AcDb2dVertex
 10
5.519006
 20
4.577251
 30
0.0
 42
1.0
  0
SEQEND
  5
B34
100
AcDbEntity
  8
0
  0
POLYLINE
  5
B35
100
AcDbEntity
  8
MECHANICAL1
100
AcDb2dPolyline
 66
     1
 10
0.0
 20
0.0
 30
0.0
 40
0.01
 41
0.01
 75
     8
  0
VERTEX
  5
B36
100
AcDbEntity
  8
MECHANICAL1
100
AcDbVertex
100
AcDb2dVertex
 10
5.46
 20
4.548843
 30
0.0
  0
VERTEX
  5
B37
100
AcDbEntity
  8
MECHANICAL1
100
AcDbVertex
100
AcDb2dVertex
 10
5.48816
 20
4.605473
 30
0.0
  0
SEQEND
  5
B38
100
AcDbEntity
  8
0
  0
POLYLINE
  5
B39
100
AcDbEntity
  8
MECHANICAL1
100
AcDb2dPolyline
 66
     1
 10
0.0
 20
0.0
 30
0.0
 70
     1
 40
0.005
 41
0.005
 75
     8
  0
VERTEX
  5
B3A
100
AcDbEntity
  8
MECHANICAL1
100
AcDbVertex
100
AcDb2dVertex
 10
5.4575
 20
4.548843
 30
0.0
 42
1.0
  0
VERTEX
  5
B3B
100
AcDbEntity
  8
MECHANICAL1
100
AcDbVertex
100
AcDb2dVertex
 10
5.4625
 20
4.548843
 30
0.0
 42
1.0
  0
SEQEND
  5
B3C
100
AcDbEntity
  8
0
  0
POLYLINE
  5
B3D
100
AcDbEntity
  8
MECHANICAL1
100
AcDb2dPolyline
 66
     1
 10
0.0
 20
0.0
 30
0.0
 70
     1
 40
0.005
 41
0.005
 75
     8
  0
VERTEX
  5
B3E
100
AcDbEntity
  8
MECHANICAL1
100
AcDbVertex
100
AcDb2dVertex
 10
5.48566
 20
4.605473
 30
0.0
 42
1.0
  0
VERTEX
  5
B3F
100
AcDbEntity
  8
MECHANICAL1
100
AcDbVertex
100
AcDb2dVertex
 10
5.49066
 20
4.605473
 30
0.0
 42
1.0
  0
SEQEND
  5
B40
100
AcDbEntity
  8
0
  0
POLYLINE
  5
B41
100
AcDbEntity
  8
MECHANICAL1
100
AcDb2dPolyline
 66
     1
 10
0.0
 20
0.0
 30
0.0
 40
0.01
 41
0.01
 75
     8
  0
VERTEX
  5
B42
100
AcDbEntity
  8
MECHANICAL1
100
AcDbVertex
100
AcDb2dVertex
 10
6.818875
 20
5.913687
 30
0.0
  0
VERTEX
  5
B43
100
AcDbEntity
  8
MECHANICAL1
100
AcDbVertex
100
AcDb2dVertex
 10
8.0
 20
7.1
 30
0.0
  0
SEQEND
  5
B44
100
AcDbEntity
  8
0
  0
POLYLINE
  5
B45
100
AcDbEntity
  8
MECHANICAL1
100
AcDb2dPolyline
 66
     1
 10
0.0
 20
0.0
 30
0.0
 70
     1
 40
0.005
 41
0.005
 75
     8
  0
VERTEX
  5
B46
100
AcDbEntity
  8
MECHANICAL1
100
AcDbVertex
100
AcDb2dVertex
 10
6.816375
 20
5.913687
 30
0.0
 42
1.0
  0
VERTEX
  5
B47
100
AcDbEntity
  8
MECHANICAL1
100
AcDbVertex
100
AcDb2dVertex
 10
6.821375
 20
5.913687
 30
0.0
 42
1.0
  0
SEQEND
  5
B48
100
AcDbEntity
  8
0
  0
POLYLINE
  5
B49
100
AcDbEntity
  8
MECHANICAL1
100
AcDb2dPolyline
 66
     1
 10
0.0
 20
0.0
 30
0.0
 70
     1
 40
0.005
 41
0.005
 75
     8
  0
VERTEX
  5
B4A
100
AcDbEntity
  8
MECHANICAL1
100
AcDbVertex
100
AcDb2dVertex
 10
7.9975
 20
7.1
 30
0.0
 42
1.0
  0
VERTEX
  5
B4B
100
AcDbEntity
  8
MECHANICAL1
100
AcDbVertex
100
AcDb2dVertex
 10
8.0025
 20
7.1
 30
0.0
 42
1.0
  0
SEQEND
  5
B4C
100
AcDbEntity
  8
0
  0
POLYLINE
  5
B4D
100
AcDbEntity
  8
MECHANICAL1
100
AcDb2dPolyline
 66
     1
 10
0.0
 20
0.0
 30
0.0
 40
0.01
 41
0.01
 75
     8
  0
VERTEX
  5
B4E
100
AcDbEntity
  8
MECHANICAL1
100
AcDbVertex
100
AcDb2dVertex
 10
5.46
 20
4.548843
 30
0.0
  0
VERTEX
  5
B4F
100
AcDbEntity
  8
MECHANICAL1
100
AcDbVertex
100
AcDb2dVertex
 10
6.641125
 20
5.735156
 30
0.0
  0
SEQEND
  5
B50
100
AcDbEntity
  8
0
  0
POLYLINE
  5
B51
100
AcDbEntity
  8
MECHANICAL1
100
AcDb2dPolyline
 66
     1
 10
0.0
 20
0.0
 30
0.0
 70
     1
 40
0.005
 41
0.005
 75
     8
  0
VERTEX
  5
B52
100
AcDbEntity
  8
MECHANICAL1
100
AcDbVertex
100
AcDb2dVertex
 10
5.4575
 20
4.548843
 30
0.0
 42
1.0
  0
VERTEX
  5
B53
100
AcDbEntity
  8
MECHANICAL1
100
AcDbVertex
100
AcDb2dVertex
 10
5.4625
 20
4.548843
 30
0.0
 42
1.0
  0
SEQEND
  5
B54
100
AcDbEntity
  8
0
  0
POLYLINE
  5
B55
100
AcDbEntity
  8
MECHANICAL1
100
AcDb2dPolyline
 66
     1
 10
0.0
 20
0.0
 30
0.0
 70
     1
 40
0.005
 41
0.005
 75
     8
  0
VERTEX
  5
B56
100
AcDbEntity
  8
MECHANICAL1
100
AcDbVertex
100
AcDb2dVertex
 10
6.638625
 20
5.735156
 30
0.0
 42
1.0
  0
VERTEX
  5
B57
100
AcDbEntity
  8
MECHANICAL1
100
AcDbVertex
100
AcDb2dVertex
 10
6.643625
 20
5.735156
 30
0.0
 42
1.0
  0
SEQEND
  5
B58
100
AcDbEntity
  8
0
  0
TEXT
  5
B59
100
AcDbEntity
  8
MECHANICAL1
100
AcDbText
 10
4.56499
 20
5.800526
 30
0.0
 40
0.06
  1
305
 50
90.0
100
AcDbText
  0
TEXT
  5
B5A
100
AcDbEntity
  8
MECHANICAL1
100
AcDbText
 10
4.03599
 20
8.223536
 30
0.0
 40
0.06
  1
2679
 50
90.0
100
AcDbText
  0
TEXT
  5
B5B
100
AcDbEntity
  8
MECHANICAL1
100
AcDbText
 10
4.03599
 20
5.389536
 30
0.0
 40
0.06
  1
2989
 50
90.0
100
AcDbText
  0
TEXT
  5
B5C
100
AcDbEntity
  8
MECHANICAL1
100
AcDbText
 10
6.314534
 20
3.23701
 30
0.0
 40
0.06
  1
3149
100
AcDbText
  0
TEXT
  5
B5D
100
AcDbEntity
  8
MECHANICAL1
100
AcDbText
 10
8.455065
 20
3.632415
 30
0.0
 40
0.06
  1
1122
100
AcDbText
  0
TEXT
  5
B5E
100
AcDbEntity
  8
MECHANICAL1
100
AcDbText
 10
7.333
 20
3.632604
 30
0.0
 40
0.06
  1
1122
100
AcDbText
  0
TEXT
  5
B5F
100
AcDbEntity
  8
MECHANICAL1
100
AcDbText
 10
4.470403
 20
6.256006
 30
0.0
 40
0.06
  1
1266
 50
90.0
100
AcDbText
  0
TEXT
  5
B60
100
AcDbEntity
  8
MECHANICAL1
100
AcDbText
 10
4.398422
 20
7.743938
 30
0.0
 40
0.06
  1
1266
 50
270.0
100
AcDbText
  0
TEXT
  5
B61
100
AcDbEntity
  8
MECHANICAL1
100
AcDbText
 10
9.413239
 20
7.804531
 30
0.0
 40
0.06
  1
3587
 50
34.0
100
AcDbText
  0
TEXT
  5
B62
100
AcDbEntity
  8
MECHANICAL1
100
AcDbText
 10
8.961919
 20
8.093597
 30
0.0
 40
0.06
  1
3297
 50
52.0
100
AcDbText
  0
TEXT
  5
B63
100
AcDbEntity
  8
MECHANICAL1
100
AcDbText
 10
6.673685
 20
5.71685
 30
0.0
 40
0.06
  1
3600
 50
45.0
100
AcDbText
  0
ENDSEC
  0
SECTION
  2
OBJECTS
  0
DICTIONARY
  5
19
100
AcDbDictionary
  3
ACAD_GROUP
350
1A
  3
ACAD_MLINESTYLE
350
1B
  0
DICTIONARY
  5
1A
102
{ACAD_REACTORS
330
19
102
}
100
AcDbDictionary
  0
DICTIONARY
  5
1B
102
{ACAD_REACTORS
330
19
102
}
100
AcDbDictionary
  3
STANDARD
350
1C
  0
MLINESTYLE
  5
1C
102
{ACAD_REACTORS
330
1B
102
}
100
AcDbMlineStyle
  2
STANDARD
 70
     0
  3

 62
     0
 51
90.0
 52
90.0
 71
     2
 49
0.5
 62
   256
  6
BYLAYER
 49
-0.5
 62
   256
  6
BYLAYER
  0
ENDSEC
  0
EOF
