  0
SECTION
  2
HEADER
  9
$ACADVER
  1
AC1014
  9
$ACADMAINTVER
 70
     0
  9
$DWGCODEPAGE
  3
ANSI_1252
  9
$INSBASE
 10
0.0
 20
0.0
 30
0.0
  9
$EXTMIN
 10
0.00953
 20
-0.138674
 30
0.0
  9
$EXTMAX
 10
44.0305
 20
24.8504
 30
0.0
  9
$LIMMIN
 10
27.0183
 20
13.0247
  9
$LIMMAX
 10
44.0305
 20
24.8504
  9
$ORTHOMODE
 70
     0
  9
$REGENMODE
 70
     1
  9
$FILLMODE
 70
     1
  9
$QTEXTMODE
 70
     0
  9
$MIRRTEXT
 70
     1
  9
$DRAGMODE
 70
     2
  9
$LTSCALE
 40
1.0
  9
$OSMODE
 70
     0
  9
$ATTMODE
 70
     1
  9
$TEXTSIZE
 40
0.2
  9
$TRACEWID
 40
0.05
  9
$TEXTSTYLE
  7
STANDARD
  9
$CLAYER
  8
0
  9
$CELTYPE
  6
BYLAYER
  9
$CECOLOR
 62
   256
  9
$CELTSCALE
 40
1.0
  9
$DELOBJ
 70
     1
  9
$DISPSILH
 70
     0
  9
$DIMSCALE
 40
1.0
  9
$DIMASZ
 40
0.18
  9
$DIMEXO
 40
0.0625
  9
$DIMDLI
 40
0.38
  9
$DIMRND
 40
0.0
  9
$DIMDLE
 40
0.0
  9
$DIMEXE
 40
0.18
  9
$DIMTP
 40
0.0
  9
$DIMTM
 40
0.0
  9
$DIMTXT
 40
0.18
  9
$DIMCEN
 40
0.09
  9
$DIMTSZ
 40
0.0
  9
$DIMTOL
 70
     0
  9
$DIMLIM
 70
     0
  9
$DIMTIH
 70
     1
  9
$DIMTOH
 70
     1
  9
$DIMSE1
 70
     0
  9
$DIMSE2
 70
     0
  9
$DIMTAD
 70
     0
  9
$DIMZIN
 70
     0
  9
$DIMBLK
  1

  9
$DIMASO
 70
     1
  9
$DIMSHO
 70
     0
  9
$DIMPOST
  1

  9
$DIMAPOST
  1

  9
$DIMALT
 70
     0
  9
$DIMALTD
 70
     2
  9
$DIMALTF
 40
25.4
  9
$DIMLFAC
 40
1.0
  9
$DIMTOFL
 70
     0
  9
$DIMTVP
 40
0.0
  9
$DIMTIX
 70
     0
  9
$DIMSOXD
 70
     0
  9
$DIMSAH
 70
     0
  9
$DIMBLK1
  1

  9
$DIMBLK2
  1

  9
$DIMSTYLE
  2
STANDARD
  9
$DIMCLRD
 70
     0
  9
$DIMCLRE
 70
     0
  9
$DIMCLRT
 70
     0
  9
$DIMTFAC
 40
1.0
  9
$DIMGAP
 40
0.09
  9
$DIMJUST
 70
     0
  9
$DIMSD1
 70
     0
  9
$DIMSD2
 70
     0
  9
$DIMTOLJ
 70
     1
  9
$DIMTZIN
 70
     0
  9
$DIMALTZ
 70
     0
  9
$DIMALTTZ
 70
     0
  9
$DIMFIT
 70
     3
  9
$DIMUPT
 70
     0
  9
$DIMUNIT
 70
     2
  9
$DIMDEC
 70
     4
  9
$DIMTDEC
 70
     4
  9
$DIMALTU
 70
     2
  9
$DIMALTTD
 70
     2
  9
$DIMTXSTY
  7
STANDARD
  9
$DIMAUNIT
 70
     0
  9
$LUNITS
 70
     2
  9
$LUPREC
 70
     4
  9
$SKETCHINC
 40
0.1
  9
$FILLETRAD
 40
0.0
  9
$AUNITS
 70
     0
  9
$AUPREC
 70
     0
  9
$MENU
  1
acad
  9
$ELEVATION
 40
0.0
  9
$PELEVATION
 40
0.0
  9
$THICKNESS
 40
0.0
  9
$LIMCHECK
 70
     0
  9
$BLIPMODE
 70
     1
  9
$CHAMFERA
 40
0.0
  9
$CHAMFERB
 40
0.0
  9
$CHAMFERC
 40
0.0
  9
$CHAMFERD
 40
0.0
  9
$SKPOLY
 70
     0
  9
$TDCREATE
 40
2447222.566688657
  9
$TDUPDATE
 40
2447222.566688657
  9
$TDINDWG
 40
0.0000000000
  9
$TDUSRTIMER
 40
0.0000000000
  9
$USRTIMER
 70
     1
  9
$ANGBASE
 50
0.0
  9
$ANGDIR
 70
     0
  9
$PDMODE
 70
     0
  9
$PDSIZE
 40
0.0
  9
$PLINEWID
 40
0.0
  9
$COORDS
 70
     0
  9
$SPLFRAME
 70
     0
  9
$SPLINETYPE
 70
     6
  9
$SPLINESEGS
 70
     8
  9
$ATTDIA
 70
     0
  9
$ATTREQ
 70
     1
  9
$HANDLING
 70
     1
  9
$HANDSEED
  5
6C9
  9
$SURFTAB1
 70
     6
  9
$SURFTAB2
 70
     6
  9
$SURFTYPE
 70
     6
  9
$SURFU
 70
     6
  9
$SURFV
 70
     6
  9
$UCSNAME
  2

  9
$UCSORG
 10
0.0
 20
0.0
 30
0.0
  9
$UCSXDIR
 10
1.0
 20
0.0
 30
0.0
  9
$UCSYDIR
 10
0.0
 20
1.0
 30
0.0
  9
$PUCSNAME
  2

  9
$PUCSORG
 10
0.0
 20
0.0
 30
0.0
  9
$PUCSXDIR
 10
1.0
 20
0.0
 30
0.0
  9
$PUCSYDIR
 10
0.0
 20
1.0
 30
0.0
  9
$USERI1
 70
     0
  9
$USERI2
 70
     0
  9
$USERI3
 70
     0
  9
$USERI4
 70
     0
  9
$USERI5
 70
     0
  9
$USERR1
 40
0.0
  9
$USERR2
 40
0.0
  9
$USERR3
 40
0.0
  9
$USERR4
 40
0.0
  9
$USERR5
 40
0.0
  9
$WORLDVIEW
 70
     1
  9
$SHADEDGE
 70
     0
  9
$SHADEDIF
 70
    70
  9
$TILEMODE
 70
     1
  9
$MAXACTVP
 70
    48
  9
$PINSBASE
 10
0.0
 20
0.0
 30
0.0
  9
$PLIMCHECK
 70
     0
  9
$PEXTMIN
 10
1.000000E+20
 20
1.000000E+20
 30
1.000000E+20
  9
$PEXTMAX
 10
-1.000000E+20
 20
-1.000000E+20
 30
-1.000000E+20
  9
$PLIMMIN
 10
0.0
 20
0.0
  9
$PLIMMAX
 10
12.0
 20
9.0
  9
$UNITMODE
 70
     0
  9
$VISRETAIN
 70
     1
  9
$PLINEGEN
 70
     0
  9
$PSLTSCALE
 70
     1
  9
$TREEDEPTH
 70
  3020
  9
$PICKSTYLE
 70
     1
  9
$CMLSTYLE
  2
STANDARD
  9
$CMLJUST
 70
     0
  9
$CMLSCALE
 40
1.0
  9
$PROXYGRAPHICS
 70
     1
  9
$MEASUREMENT
 70
     0
  0
ENDSEC
  0
SECTION
  2
CLASSES
  0
ENDSEC
  0
SECTION
  2
TABLES
  0
TABLE
  2
VPORT
  5
8
100
AcDbSymbolTable
 70
     2
  0
VPORT
  5
6C8
100
AcDbSymbolTableRecord
100
AcDbViewportTableRecord
  2
*ACTIVE
 70
     0
 10
0.0
 20
0.0
 11
1.0
 21
1.0
 12
35.5244
 22
18.93755
 13
0.0
 23
0.0
 14
1.0
 24
1.0
 15
0.0
 25
0.0
 16
0.0
 26
0.0
 36
1.0
 17
0.0
 27
0.0
 37
0.0
 40
11.888491
 41
1.4845
 42
50.0
 43
0.0
 44
0.0
 50
0.0
 51
0.0
 71
     0
 72
   100
 73
     1
 74
     1
 75
     0
 76
     0
 77
     0
 78
     0
  0
ENDTAB
  0
TABLE
  2
LTYPE
  5
5
100
AcDbSymbolTable
 70
    13
  0
LTYPE
  5
12
100
AcDbSymbolTableRecord
100
AcDbLinetypeTableRecord
  2
BYBLOCK
 70
     0
  3

 72
    65
 73
     0
 40
0.0
  0
LTYPE
  5
13
100
AcDbSymbolTableRecord
100
AcDbLinetypeTableRecord
  2
BYLAYER
 70
     0
  3

 72
    65
 73
     0
 40
0.0
  0
LTYPE
  5
14
100
AcDbSymbolTableRecord
100
AcDbLinetypeTableRecord
  2
CONTINUOUS
 70
     0
  3
Solid line
 72
    65
 73
     0
 40
0.0
  0
LTYPE
  5
1F
100
AcDbSymbolTableRecord
100
AcDbLinetypeTableRecord
  2
DASHED
 70
     0
  3
__ __ __ __ __ __ __ __ __ __ __ __ __ __ __
 72
    65
 73
     2
 40
0.75
 49
0.5
 74
     0
 49
-0.25
 74
     0
  0
LTYPE
  5
20
100
AcDbSymbolTableRecord
100
AcDbLinetypeTableRecord
  2
HIDDEN
 70
     0
  3
_ _ _ _ _ _ _ _ _ _ _ _ _ _ _ _ _ _ _ _ _ _ _
 72
    65
 73
     2
 40
0.375
 49
0.25
 74
     0
 49
-0.125
 74
     0
  0
LTYPE
  5
21
100
AcDbSymbolTableRecord
100
AcDbLinetypeTableRecord
  2
CENTER
 70
     0
  3
____ _ ____ _ ____ _ ____ _ ____ _ ____ _ ____
 72
    65
 73
     4
 40
2.0
 49
1.25
 74
     0
 49
-0.25
 74
     0
 49
0.25
 74
     0
 49
-0.25
 74
     0
  0
LTYPE
  5
22
100
AcDbSymbolTableRecord
100
AcDbLinetypeTableRecord
  2
PHANTOM
 70
     0
  3
_____ _ _ _____ _ _ _____ _ _ _____ _ _ ____
 72
    65
 73
     6
 40
2.5
 49
1.25
 74
     0
 49
-0.25
 74
     0
 49
0.25
 74
     0
 49
-0.25
 74
     0
 49
0.25
 74
     0
 49
-0.25
 74
     0
  0
LTYPE
  5
23
100
AcDbSymbolTableRecord
100
AcDbLinetypeTableRecord
  2
DOT
 70
     0
  3
...............................................
 72
    65
 73
     2
 40
0.25
 49
0.0
 74
     0
 49
-0.25
 74
     0
  0
LTYPE
  5
24
100
AcDbSymbolTableRecord
100
AcDbLinetypeTableRecord
  2
DASHDOT
 70
     0
  3
__ . __ . __ . __ . __ . __ . __ . __ . __ . __
 72
    65
 73
     4
 40
1.0
 49
0.5
 74
     0
 49
-0.25
 74
     0
 49
0.0
 74
     0
 49
-0.25
 74
     0
  0
LTYPE
  5
25
100
AcDbSymbolTableRecord
100
AcDbLinetypeTableRecord
  2
BORDER
 70
     0
  3
__ __ . __ __ . __ __ . __ __ . __ __ . __ __
 72
    65
 73
     6
 40
1.75
 49
0.5
 74
     0
 49
-0.25
 74
     0
 49
0.5
 74
     0
 49
-0.25
 74
     0
 49
0.0
 74
     0
 49
-0.25
 74
     0
  0
LTYPE
  5
26
100
AcDbSymbolTableRecord
100
AcDbLinetypeTableRecord
  2
DIVIDE
 70
     0
  3
__ . . __ . . __ . . __ . . __ . . __ . . __
 72
    65
 73
     6
 40
1.25
 49
0.5
 74
     0
 49
-0.25
 74
     0
 49
0.0
 74
     0
 49
-0.25
 74
     0
 49
0.0
 74
     0
 49
-0.25
 74
     0
  0
LTYPE
  5
27
100
AcDbSymbolTableRecord
100
AcDbLinetypeTableRecord
  2
DCTYPE1
 70
     0
  3
__ . . __ . . __ . . __ . . __ . . __ . . __
 72
    65
 73
     8
 40
2.5
 49
0.5
 74
     0
 49
-0.25
 74
     0
 49
0.125
 74
     0
 49
-0.25
 74
     0
 49
0.25
 74
     0
 49
-0.25
 74
     0
 49
0.125
 74
     0
 49
-0.25
 74
     0
  0
LTYPE
  5
28
100
AcDbSymbolTableRecord
100
AcDbLinetypeTableRecord
  2
DCTYPE2
 70
     0
  3
__ . . __ . . __ . . __ . . __ . . __ . . __
 72
    65
 73
     6
 40
2.05
 49
1.0
 74
     0
 49
-0.3
 74
     0
 49
0.15
 74
     0
 49
-0.15
 74
     0
 49
0.15
 74
     0
 49
-0.3
 74
     0
  0
LTYPE
  5
29
100
AcDbSymbolTableRecord
100
AcDbLinetypeTableRecord
  2
DCTYPE3
 70
     0
  3
__ . . __ . . __ . . __ . . __ . . __ . . __
 72
    65
 73
     6
 40
2.5
 49
0.8
 74
     0
 49
-0.2
 74
     0
 49
0.8
 74
     0
 49
-0.2
 74
     0
 49
0.3
 74
     0
 49
-0.2
 74
     0
  0
LTYPE
  5
2A
100
AcDbSymbolTableRecord
100
AcDbLinetypeTableRecord
  2
DCTYPE4
 70
     0
  3
__ . . __ . . __ . . __ . . __ . . __ . . __
 72
    65
 73
    10
 40
3.97
 49
1.75
 74
     0
 49
-0.3
 74
     0
 49
0.3
 74
     0
 49
-0.3
 74
     0
 49
0.06
 74
     0
 49
-0.3
 74
     0
 49
0.06
 74
     0
 49
-0.3
 74
     0
 49
0.3
 74
     0
 49
-0.3
 74
     0
  0
ENDTAB
  0
TABLE
  2
LAYER
  5
2
100
AcDbSymbolTable
 70
     6
  0
LAYER
  5
E
100
AcDbSymbolTableRecord
100
AcDbLayerTableRecord
  2
0
 70
     0
 62
     7
  6
CONTINUOUS
  0
LAYER
  5
2B
100
AcDbSymbolTableRecord
100
AcDbLayerTableRecord
  2
LAYER1
 70
     0
 62
   250
  6
CONTINUOUS
  0
LAYER
  5
2C
100
AcDbSymbolTableRecord
100
AcDbLayerTableRecord
  2
LAYER2
 70
     0
 62
   250
  6
CONTINUOUS
  0
LAYER
  5
2D
100
AcDbSymbolTableRecord
100
AcDbLayerTableRecord
  2
LAYER3
 70
     0
 62
   250
  6
CONTINUOUS
  0
LAYER
  5
2E
100
AcDbSymbolTableRecord
100
AcDbLayerTableRecord
  2
LAYER4
 70
     0
 62
   250
  6
CONTINUOUS
  0
LAYER
  5
2F
100
AcDbSymbolTableRecord
100
AcDbLayerTableRecord
  2
LAYER7
 70
     0
 62
   250
  6
CONTINUOUS
  0
ENDTAB
  0
TABLE
  2
STYLE
  5
3
100
AcDbSymbolTable
 70
     1
  0
STYLE
  5
F
100
AcDbSymbolTableRecord
100
AcDbTextStyleTableRecord
  2
STANDARD
 70
     0
 40
0.0
 41
1.0
 50
0.0
 71
     0
 42
0.2
  3
txt
  4

  0
ENDTAB
  0
TABLE
  2
VIEW
  5
6
100
AcDbSymbolTable
 70
     0
  0
ENDTAB
  0
TABLE
  2
UCS
  5
7
100
AcDbSymbolTable
 70
     0
  0
ENDTAB
  0
TABLE
  2
APPID
  5
9
100
AcDbSymbolTable
 70
     1
  0
APPID
  5
10
100
AcDbSymbolTableRecord
100
AcDbRegAppTableRecord
  2
ACAD
 70
     0
  0
ENDTAB
  0
TABLE
  2
DIMSTYLE
  5
A
100
AcDbSymbolTable
 70
     1
  0
DIMSTYLE
105
6C1
100
AcDbSymbolTableRecord
100
AcDbDimStyleTableRecord
  2
STANDARD
 70
     0
  3

  4

  5

  6

  7

 40
1.0
 41
0.18
 42
0.0625
 43
0.38
 44
0.18
 45
0.0
 46
0.0
 47
0.0
 48
0.0
140
0.18
141
0.09
142
0.0
143
25.4
144
1.0
145
0.0
146
1.0
147
0.09
 71
     0
 72
     0
 73
     1
 74
     1
 75
     0
 76
     0
 77
     0
 78
     0
170
     0
171
     2
172
     0
173
     0
174
     0
175
     0
176
     0
177
     0
178
     0
270
     2
271
     4
272
     4
273
     2
274
     2
340
F
275
     0
280
     0
281
     0
282
     0
283
     1
284
     0
285
     0
286
     0
287
     3
288
     0
  0
ENDTAB
  0
TABLE
  2
BLOCK_RECORD
  5
1
100
AcDbSymbolTable
 70
     0
  0
BLOCK_RECORD
  5
18
100
AcDbSymbolTableRecord
100
AcDbBlockTableRecord
  2
*MODEL_SPACE
  0
BLOCK_RECORD
  5
15
100
AcDbSymbolTableRecord
100
AcDbBlockTableRecord
  2
*PAPER_SPACE
  0
ENDTAB
  0
ENDSEC
  0
SECTION
  2
BLOCKS
  0
BLOCK
  5
19
100
AcDbEntity
  8
0
100
AcDbBlockBegin
  2
*MODEL_SPACE
 70
     0
 10
0.0
 20
0.0
 30
0.0
  3
*MODEL_SPACE
  1

  0
ENDBLK
  5
1A
100
AcDbEntity
  8
0
100
AcDbBlockEnd
  0
BLOCK
  5
16
100
AcDbEntity
 67
     1
  8
0
100
AcDbBlockBegin
  2
*PAPER_SPACE
 70
     0
 10
0.0
 20
0.0
 30
0.0
  3
*PAPER_SPACE
  1

  0
ENDBLK
  5
17
100
AcDbEntity
 67
     1
  8
0
100
AcDbBlockEnd
  0
ENDSEC
  0
SECTION
  2
ENTITIES
  0
CIRCLE
  5
30
100
AcDbEntity
  8
LAYER1
  6
CONTINUOUS
 62
   250
100
AcDbCircle
 10
36.7773
 20
23.1993
 30
0.0
 40
0.0855
  0
CIRCLE
  5
31
100
AcDbEntity
  8
LAYER1
  6
CONTINUOUS
 62
   250
100
AcDbCircle
 10
34.5523
 20
23.1993
 30
0.0
 40
0.0855
  0
CIRCLE
  5
32
100
AcDbEntity
  8
LAYER1
  6
CONTINUOUS
 62
   250
100
AcDbCircle
 10
36.7773
 20
18.0493
 30
0.0
 40
0.0855
  0
CIRCLE
  5
33
100
AcDbEntity
  8
LAYER1
  6
CONTINUOUS
 62
   250
100
AcDbCircle
 10
34.5523
 20
18.0493
 30
0.0
 40
0.0855
  0
CIRCLE
  5
34
100
AcDbEntity
  8
LAYER1
  6
CONTINUOUS
 62
   250
100
AcDbCircle
 10
38.3148
 20
21.7443
 30
0.0
 40
0.0855
  0
CIRCLE
  5
35
100
AcDbEntity
  8
LAYER1
  6
CONTINUOUS
 62
   250
100
AcDbCircle
 10
38.3148
 20
19.5043
 30
0.0
 40
0.0855
  0
ARC
  5
36
100
AcDbEntity
  8
LAYER1
  6
CONTINUOUS
 62
   250
100
AcDbCircle
 10
38.2898
 20
21.7443
 30
0.0
 40
0.1875
100
AcDbArc
 50
270.0
 51
90.0
  0
ARC
  5
37
100
AcDbEntity
  8
LAYER1
  6
CONTINUOUS
 62
   250
100
AcDbCircle
 10
38.2898
 20
19.5043
 30
0.0
 40
0.1875
100
AcDbArc
 50
270.0
 51
90.0
  0
CIRCLE
  5
38
100
AcDbEntity
  8
LAYER1
  6
CONTINUOUS
 62
   250
100
AcDbCircle
 10
33.0148
 20
21.7443
 30
0.0
 40
0.0855
  0
CIRCLE
  5
39
100
AcDbEntity
  8
LAYER1
  6
CONTINUOUS
 62
   250
100
AcDbCircle
 10
33.0148
 20
19.5043
 30
0.0
 40
0.0855
  0
ARC
  5
3A
100
AcDbEntity
  8
LAYER1
  6
CONTINUOUS
 62
   250
100
AcDbCircle
 10
33.0398
 20
21.7443
 30
0.0
 40
0.1875
100
AcDbArc
 50
90.0
 51
270.0
  0
ARC
  5
3B
100
AcDbEntity
  8
LAYER1
  6
CONTINUOUS
 62
   250
100
AcDbCircle
 10
33.0398
 20
19.5043
 30
0.0
 40
0.1875
100
AcDbArc
 50
90.0
 51
270.0
  0
ARC
  5
3C
100
AcDbEntity
  8
LAYER1
  6
CONTINUOUS
 62
   250
100
AcDbCircle
 10
35.6698
 20
20.6193
 30
0.0
 40
3.235
100
AcDbArc
 50
123.1816
 51
142.7481
  0
ARC
  5
3D
100
AcDbEntity
  8
LAYER1
  6
CONTINUOUS
 62
   250
100
AcDbCircle
 10
35.6598
 20
20.6193
 30
0.0
 40
3.235
100
AcDbArc
 50
37.2519
 51
56.8184
  0
ARC
  5
3E
100
AcDbEntity
  8
LAYER1
  6
CONTINUOUS
 62
   250
100
AcDbCircle
 10
35.6598
 20
20.6293
 30
0.0
 40
3.235
100
AcDbArc
 50
303.1816
 51
322.7481
  0
ARC
  5
3F
100
AcDbEntity
  8
LAYER1
  6
CONTINUOUS
 62
   250
100
AcDbCircle
 10
35.6698
 20
20.6293
 30
0.0
 40
3.235
100
AcDbArc
 50
217.2519
 51
236.8184
  0
POLYLINE
  5
40
100
AcDbEntity
  8
LAYER1
  6
CONTINUOUS
 62
   250
100
AcDb3dPolyline
 66
     1
 10
0.0
 20
0.0
 30
0.0
 70
     8
  0
VERTEX
  5
41
100
AcDbEntity
  8
LAYER1
  6
CONTINUOUS
 62
   250
100
AcDbVertex
100
AcDb3dPolylineVertex
 10
33.0948
 20
21.5568
 30
0.0
 70
    32
  0
VERTEX
  5
42
100
AcDbEntity
  8
LAYER1
  6
CONTINUOUS
 62
   250
100
AcDbVertex
100
AcDb3dPolylineVertex
 10
33.0948
 20
19.6918
 30
0.0
 70
    32
  0
SEQEND
  5
43
100
AcDbEntity
  8
LAYER1
 62
   250
  0
POLYLINE
  5
44
100
AcDbEntity
  8
LAYER1
  6
CONTINUOUS
 62
   250
100
AcDb3dPolyline
 66
     1
 10
0.0
 20
0.0
 30
0.0
 70
     8
  0
VERTEX
  5
45
100
AcDbEntity
  8
LAYER1
  6
CONTINUOUS
 62
   250
100
AcDbVertex
100
AcDb3dPolylineVertex
 10
38.2348
 20
21.5568
 30
0.0
 70
    32
  0
VERTEX
  5
46
100
AcDbEntity
  8
LAYER1
  6
CONTINUOUS
 62
   250
100
AcDbVertex
100
AcDb3dPolylineVertex
 10
38.2348
 20
19.6918
 30
0.0
 70
    32
  0
SEQEND
  5
47
100
AcDbEntity
  8
LAYER1
 62
   250
  0
POLYLINE
  5
48
100
AcDbEntity
  8
LAYER1
  6
CONTINUOUS
 62
   250
100
AcDb3dPolyline
 66
     1
 10
0.0
 20
0.0
 30
0.0
 70
     8
  0
VERTEX
  5
49
100
AcDbEntity
  8
LAYER1
  6
CONTINUOUS
 62
   250
100
AcDbVertex
100
AcDb3dPolylineVertex
 10
33.0398
 20
21.5568
 30
0.0
 70
    32
  0
VERTEX
  5
4A
100
AcDbEntity
  8
LAYER1
  6
CONTINUOUS
 62
   250
100
AcDbVertex
100
AcDb3dPolylineVertex
 10
33.0948
 20
21.5568
 30
0.0
 70
    32
  0
SEQEND
  5
4B
100
AcDbEntity
  8
LAYER1
 62
   250
  0
POLYLINE
  5
4C
100
AcDbEntity
  8
LAYER1
  6
CONTINUOUS
 62
   250
100
AcDb3dPolyline
 66
     1
 10
0.0
 20
0.0
 30
0.0
 70
     8
  0
VERTEX
  5
4D
100
AcDbEntity
  8
LAYER1
  6
CONTINUOUS
 62
   250
100
AcDbVertex
100
AcDb3dPolylineVertex
 10
33.0398
 20
21.9318
 30
0.0
 70
    32
  0
VERTEX
  5
4E
100
AcDbEntity
  8
LAYER1
  6
CONTINUOUS
 62
   250
100
AcDbVertex
100
AcDb3dPolylineVertex
 10
33.0948
 20
21.9318
 30
0.0
 70
    32
  0
SEQEND
  5
4F
100
AcDbEntity
  8
LAYER1
 62
   250
  0
POLYLINE
  5
50
100
AcDbEntity
  8
LAYER1
  6
CONTINUOUS
 62
   250
100
AcDb3dPolyline
 66
     1
 10
0.0
 20
0.0
 30
0.0
 70
     8
  0
VERTEX
  5
51
100
AcDbEntity
  8
LAYER1
  6
CONTINUOUS
 62
   250
100
AcDbVertex
100
AcDb3dPolylineVertex
 10
33.0398
 20
19.6918
 30
0.0
 70
    32
  0
VERTEX
  5
52
100
AcDbEntity
  8
LAYER1
  6
CONTINUOUS
 62
   250
100
AcDbVertex
100
AcDb3dPolylineVertex
 10
33.0948
 20
19.6918
 30
0.0
 70
    32
  0
SEQEND
  5
53
100
AcDbEntity
  8
LAYER1
 62
   250
  0
POLYLINE
  5
54
100
AcDbEntity
  8
LAYER1
  6
CONTINUOUS
 62
   250
100
AcDb3dPolyline
 66
     1
 10
0.0
 20
0.0
 30
0.0
 70
     8
  0
VERTEX
  5
55
100
AcDbEntity
  8
LAYER1
  6
CONTINUOUS
 62
   250
100
AcDbVertex
100
AcDb3dPolylineVertex
 10
33.0398
 20
19.3168
 30
0.0
 70
    32
  0
VERTEX
  5
56
100
AcDbEntity
  8
LAYER1
  6
CONTINUOUS
 62
   250
100
AcDbVertex
100
AcDb3dPolylineVertex
 10
33.0948
 20
19.3168
 30
0.0
 70
    32
  0
SEQEND
  5
57
100
AcDbEntity
  8
LAYER1
 62
   250
  0
POLYLINE
  5
58
100
AcDbEntity
  8
LAYER1
  6
CONTINUOUS
 62
   250
100
AcDb3dPolyline
 66
     1
 10
0.0
 20
0.0
 30
0.0
 70
     8
  0
VERTEX
  5
59
100
AcDbEntity
  8
LAYER1
  6
CONTINUOUS
 62
   250
100
AcDbVertex
100
AcDb3dPolylineVertex
 10
38.2898
 20
19.6918
 30
0.0
 70
    32
  0
VERTEX
  5
5A
100
AcDbEntity
  8
LAYER1
  6
CONTINUOUS
 62
   250
100
AcDbVertex
100
AcDb3dPolylineVertex
 10
38.2348
 20
19.6918
 30
0.0
 70
    32
  0
SEQEND
  5
5B
100
AcDbEntity
  8
LAYER1
 62
   250
  0
POLYLINE
  5
5C
100
AcDbEntity
  8
LAYER1
  6
CONTINUOUS
 62
   250
100
AcDb3dPolyline
 66
     1
 10
0.0
 20
0.0
 30
0.0
 70
     8
  0
VERTEX
  5
5D
100
AcDbEntity
  8
LAYER1
  6
CONTINUOUS
 62
   250
100
AcDbVertex
100
AcDb3dPolylineVertex
 10
38.2348
 20
19.3168
 30
0.0
 70
    32
  0
VERTEX
  5
5E
100
AcDbEntity
  8
LAYER1
  6
CONTINUOUS
 62
   250
100
AcDbVertex
100
AcDb3dPolylineVertex
 10
38.2898
 20
19.3168
 30
0.0
 70
    32
  0
SEQEND
  5
5F
100
AcDbEntity
  8
LAYER1
 62
   250
  0
POLYLINE
  5
60
100
AcDbEntity
  8
LAYER1
  6
CONTINUOUS
 62
   250
100
AcDb3dPolyline
 66
     1
 10
0.0
 20
0.0
 30
0.0
 70
     8
  0
VERTEX
  5
61
100
AcDbEntity
  8
LAYER1
  6
CONTINUOUS
 62
   250
100
AcDbVertex
100
AcDb3dPolylineVertex
 10
38.2348
 20
21.9318
 30
0.0
 70
    32
  0
VERTEX
  5
62
100
AcDbEntity
  8
LAYER1
  6
CONTINUOUS
 62
   250
100
AcDbVertex
100
AcDb3dPolylineVertex
 10
38.2898
 20
21.9318
 30
0.0
 70
    32
  0
SEQEND
  5
63
100
AcDbEntity
  8
LAYER1
 62
   250
  0
POLYLINE
  5
64
100
AcDbEntity
  8
LAYER1
  6
CONTINUOUS
 62
   250
100
AcDb3dPolyline
 66
     1
 10
0.0
 20
0.0
 30
0.0
 70
     8
  0
VERTEX
  5
65
100
AcDbEntity
  8
LAYER1
  6
CONTINUOUS
 62
   250
100
AcDbVertex
100
AcDb3dPolylineVertex
 10
38.2348
 20
21.5568
 30
0.0
 70
    32
  0
VERTEX
  5
66
100
AcDbEntity
  8
LAYER1
  6
CONTINUOUS
 62
   250
100
AcDbVertex
100
AcDb3dPolylineVertex
 10
38.2898
 20
21.5568
 30
0.0
 70
    32
  0
SEQEND
  5
67
100
AcDbEntity
  8
LAYER1
 62
   250
  0
POLYLINE
  5
68
100
AcDbEntity
  8
LAYER1
  6
CONTINUOUS
 62
   250
100
AcDb3dPolyline
 66
     1
 10
0.0
 20
0.0
 30
0.0
 70
     8
  0
VERTEX
  5
69
100
AcDbEntity
  8
LAYER1
  6
CONTINUOUS
 62
   250
100
AcDbVertex
100
AcDb3dPolylineVertex
 10
33.8993
 20
17.9218
 30
0.0
 70
    32
  0
VERTEX
  5
6A
100
AcDbEntity
  8
LAYER1
  6
CONTINUOUS
 62
   250
100
AcDbVertex
100
AcDb3dPolylineVertex
 10
37.4303
 20
17.9218
 30
0.0
 70
    32
  0
SEQEND
  5
6B
100
AcDbEntity
  8
LAYER1
 62
   250
  0
POLYLINE
  5
6C
100
AcDbEntity
  8
LAYER1
  6
CONTINUOUS
 62
   250
100
AcDb3dPolyline
 66
     1
 10
0.0
 20
0.0
 30
0.0
 70
     8
  0
VERTEX
  5
6D
100
AcDbEntity
  8
LAYER1
  6
CONTINUOUS
 62
   250
100
AcDbVertex
100
AcDb3dPolylineVertex
 10
33.8993
 20
23.3268
 30
0.0
 70
    32
  0
VERTEX
  5
6E
100
AcDbEntity
  8
LAYER1
  6
CONTINUOUS
 62
   250
100
AcDbVertex
100
AcDb3dPolylineVertex
 10
37.4303
 20
23.3268
 30
0.0
 70
    32
  0
SEQEND
  5
6F
100
AcDbEntity
  8
LAYER1
 62
   250
  0
POLYLINE
  5
70
100
AcDbEntity
  8
LAYER1
  6
CONTINUOUS
 62
   250
100
AcDb3dPolyline
 66
     1
 10
0.0
 20
0.0
 30
0.0
 70
     8
  0
VERTEX
  5
71
100
AcDbEntity
  8
LAYER1
  6
CONTINUOUS
 62
   250
100
AcDbVertex
100
AcDb3dPolylineVertex
 10
33.0948
 20
21.9318
 30
0.0
 70
    32
  0
VERTEX
  5
72
100
AcDbEntity
  8
LAYER1
  6
CONTINUOUS
 62
   250
100
AcDbVertex
100
AcDb3dPolylineVertex
 10
33.0948
 20
22.5775
 30
0.0
 70
    32
  0
SEQEND
  5
73
100
AcDbEntity
  8
LAYER1
 62
   250
  0
POLYLINE
  5
74
100
AcDbEntity
  8
LAYER1
  6
CONTINUOUS
 62
   250
100
AcDb3dPolyline
 66
     1
 10
0.0
 20
0.0
 30
0.0
 70
     8
  0
VERTEX
  5
75
100
AcDbEntity
  8
LAYER1
  6
CONTINUOUS
 62
   250
100
AcDbVertex
100
AcDb3dPolylineVertex
 10
38.2348
 20
21.9318
 30
0.0
 70
    32
  0
VERTEX
  5
76
100
AcDbEntity
  8
LAYER1
  6
CONTINUOUS
 62
   250
100
AcDbVertex
100
AcDb3dPolylineVertex
 10
38.2348
 20
22.5775
 30
0.0
 70
    32
  0
SEQEND
  5
77
100
AcDbEntity
  8
LAYER1
 62
   250
  0
POLYLINE
  5
78
100
AcDbEntity
  8
LAYER1
  6
CONTINUOUS
 62
   250
100
AcDb3dPolyline
 66
     1
 10
0.0
 20
0.0
 30
0.0
 70
     8
  0
VERTEX
  5
79
100
AcDbEntity
  8
LAYER1
  6
CONTINUOUS
 62
   250
100
AcDbVertex
100
AcDb3dPolylineVertex
 10
33.0948
 20
19.3168
 30
0.0
 70
    32
  0
VERTEX
  5
7A
100
AcDbEntity
  8
LAYER1
  6
CONTINUOUS
 62
   250
100
AcDbVertex
100
AcDb3dPolylineVertex
 10
33.0948
 20
18.6711
 30
0.0
 70
    32
  0
SEQEND
  5
7B
100
AcDbEntity
  8
LAYER1
 62
   250
  0
POLYLINE
  5
7C
100
AcDbEntity
  8
LAYER1
  6
CONTINUOUS
 62
   250
100
AcDb3dPolyline
 66
     1
 10
0.0
 20
0.0
 30
0.0
 70
     8
  0
VERTEX
  5
7D
100
AcDbEntity
  8
LAYER1
  6
CONTINUOUS
 62
   250
100
AcDbVertex
100
AcDb3dPolylineVertex
 10
38.2348
 20
19.3168
 30
0.0
 70
    32
  0
VERTEX
  5
7E
100
AcDbEntity
  8
LAYER1
  6
CONTINUOUS
 62
   250
100
AcDbVertex
100
AcDb3dPolylineVertex
 10
38.2348
 20
18.6711
 30
0.0
 70
    32
  0
SEQEND
  5
7F
100
AcDbEntity
  8
LAYER1
 62
   250
  0
POINT
  5
80
100
AcDbEntity
  8
LAYER1
100
AcDbPoint
 10
35.6648
 20
20.6243
 30
0.0
  0
POINT
  5
81
100
AcDbEntity
  8
LAYER1
100
AcDbPoint
 10
35.6648
 20
20.6243
 30
0.0
  0
POINT
  5
82
100
AcDbEntity
  8
LAYER2
100
AcDbPoint
 10
37.3659
 20
15.474
 30
0.0
  0
POLYLINE
  5
276
100
AcDbEntity
  8
LAYER2
  6
CONTINUOUS
 62
   250
100
AcDb3dPolyline
 66
     1
 10
0.0
 20
0.0
 30
0.0
 70
     8
  0
VERTEX
  5
277
100
AcDbEntity
  8
LAYER2
  6
CONTINUOUS
 62
   250
100
AcDbVertex
100
AcDb3dPolylineVertex
 10
44.0305
 20
13.0261
 30
0.0
 70
    32
  0
VERTEX
  5
278
100
AcDbEntity
  8
LAYER2
  6
CONTINUOUS
 62
   250
100
AcDbVertex
100
AcDb3dPolylineVertex
 10
44.0305
 20
15.8448
 30
0.0
 70
    32
  0
SEQEND
  5
279
100
AcDbEntity
  8
LAYER2
 62
   250
  0
TEXT
  5
27A
100
AcDbEntity
  8
LAYER2
 62
   250
100
AcDbText
 10
41.3716
 20
14.4985
 30
0.0
 40
0.12
  1
#6 - 1301 Ketch Court
100
AcDbText
  0
TEXT
  5
27B
100
AcDbEntity
  8
LAYER2
 62
   250
100
AcDbText
 10
41.3716
 20
14.2167
 30
0.0
 40
0.12
  1
Coquitlam, B.C.
100
AcDbText
  0
TEXT
  5
27C
100
AcDbEntity
  8
LAYER2
 62
   250
100
AcDbText
 10
41.3716
 20
13.9348
 30
0.0
 40
0.12
  1
Phone:  (604) 527.1100
100
AcDbText
  0
TEXT
  5
27D
100
AcDbEntity
  8
LAYER2
 62
   250
100
AcDbText
 10
41.3716
 20
13.6529
 30
0.0
 40
0.12
  1
Fax:    (604) 527.1110
100
AcDbText
  0
TEXT
  5
27E
100
AcDbEntity
  8
LAYER2
 62
   250
100
AcDbText
 10
41.3615
 20
13.3758
 30
0.0
 40
0.12
  1
WEB: www.Tri-M.com
100
AcDbText
  0
TEXT
  5
27F
100
AcDbEntity
  8
LAYER2
 62
   250
100
AcDbText
 10
35.9685
 20
15.0806
 30
0.0
 40
0.1705
  1
Customer
 41
0.789341
 72
     5
 11
37.0003
 21
15.0806
 31
0.0
100
AcDbText
  0
TEXT
  5
280
100
AcDbEntity
  8
LAYER2
 62
   250
100
AcDbText
 10
35.9685
 20
14.6873
 30
0.0
 40
0.1705
  1
Drawing #
 41
0.785557
 72
     5
 11
37.04
 21
14.6873
 31
0.0
100
AcDbText
  0
TEXT
  5
281
100
AcDbEntity
  8
LAYER2
 62
   250
100
AcDbText
 10
35.9685
 20
15.474
 30
0.0
 40
0.1705
  1
Title
 41
0.753582
 72
     5
 11
36.4182
 21
15.474
 31
0.0
100
AcDbText
  0
POLYLINE
  5
282
100
AcDbEntity
  8
LAYER2
  6
CONTINUOUS
 62
   250
100
AcDb3dPolyline
 66
     1
 10
0.0
 20
0.0
 30
0.0
 70
     8
  0
VERTEX
  5
283
100
AcDbEntity
  8
LAYER2
  6
CONTINUOUS
 62
   250
100
AcDbVertex
100
AcDb3dPolylineVertex
 10
41.0634
 20
13.0261
 30
0.0
 70
    32
  0
VERTEX
  5
284
100
AcDbEntity
  8
LAYER2
  6
CONTINUOUS
 62
   250
100
AcDbVertex
100
AcDb3dPolylineVertex
 10
44.0305
 20
13.0261
 30
0.0
 70
    32
  0
SEQEND
  5
285
100
AcDbEntity
  8
LAYER2
 62
   250
  0
POLYLINE
  5
286
100
AcDbEntity
  8
LAYER2
  6
CONTINUOUS
 62
   250
100
AcDb3dPolyline
 66
     1
 10
0.0
 20
0.0
 30
0.0
 70
     8
  0
VERTEX
  5
287
100
AcDbEntity
  8
LAYER2
  6
CONTINUOUS
 62
   250
100
AcDbVertex
100
AcDb3dPolylineVertex
 10
35.8187
 20
13.0261
 30
0.0
 70
    32
  0
VERTEX
  5
288
100
AcDbEntity
  8
LAYER2
  6
CONTINUOUS
 62
   250
100
AcDbVertex
100
AcDb3dPolylineVertex
 10
30.0848
 20
13.0261
 30
0.0
 70
    32
  0
SEQEND
  5
289
100
AcDbEntity
  8
LAYER2
 62
   250
  0
POINT
  5
28A
100
AcDbEntity
  8
LAYER2
100
AcDbPoint
 10
37.3659
 20
15.0806
 30
0.0
  0
POINT
  5
28B
100
AcDbEntity
  8
LAYER2
100
AcDbPoint
 10
37.3659
 20
14.6873
 30
0.0
  0
POINT
  5
28C
100
AcDbEntity
  8
LAYER2
100
AcDbPoint
 10
37.3659
 20
14.2939
 30
0.0
  0
POINT
  5
28D
100
AcDbEntity
  8
LAYER2
100
AcDbPoint
 10
37.3659
 20
13.9005
 30
0.0
  0
POINT
  5
28E
100
AcDbEntity
  8
LAYER2
100
AcDbPoint
 10
37.3659
 20
13.5072
 30
0.0
  0
POINT
  5
28F
100
AcDbEntity
  8
LAYER2
100
AcDbPoint
 10
35.9685
 20
13.1138
 30
0.0
  0
POINT
  5
290
100
AcDbEntity
  8
LAYER2
100
AcDbPoint
 10
37.3659
 20
13.1138
 30
0.0
  0
TEXT
  5
291
100
AcDbEntity
  8
LAYER2
 62
   250
100
AcDbText
 10
35.9685
 20
13.9005
 30
0.0
 40
0.1705
  1
Date
 41
0.804266
 72
     5
 11
36.4713
 21
13.9005
 31
0.0
100
AcDbText
  0
TEXT
  5
292
100
AcDbEntity
  8
LAYER2
 62
   250
100
AcDbText
 10
35.9685
 20
13.5072
 30
0.0
 40
0.1705
  1
Drawn By
 41
0.789341
 72
     5
 11
37.0003
 21
13.5072
 31
0.0
100
AcDbText
  0
POLYLINE
  5
293
100
AcDbEntity
  8
LAYER2
  6
CONTINUOUS
 62
   250
100
AcDb3dPolyline
 66
     1
 10
0.0
 20
0.0
 30
0.0
 70
     8
  0
VERTEX
  5
294
100
AcDbEntity
  8
LAYER2
  6
CONTINUOUS
 62
   250
100
AcDbVertex
100
AcDb3dPolylineVertex
 10
41.0634
 20
13.0261
 30
0.0
 70
    32
  0
VERTEX
  5
295
100
AcDbEntity
  8
LAYER2
  6
CONTINUOUS
 62
   250
100
AcDbVertex
100
AcDb3dPolylineVertex
 10
41.0634
 20
15.8448
 30
0.0
 70
    32
  0
SEQEND
  5
296
100
AcDbEntity
  8
LAYER2
 62
   250
  0
POLYLINE
  5
297
100
AcDbEntity
  8
LAYER2
  6
CONTINUOUS
 62
   250
100
AcDb3dPolyline
 66
     1
 10
0.0
 20
0.0
 30
0.0
 70
     8
  0
VERTEX
  5
298
100
AcDbEntity
  8
LAYER2
  6
CONTINUOUS
 62
   250
100
AcDbVertex
100
AcDb3dPolylineVertex
 10
35.8187
 20
15.8448
 30
0.0
 70
    32
  0
VERTEX
  5
299
100
AcDbEntity
  8
LAYER2
  6
CONTINUOUS
 62
   250
100
AcDbVertex
100
AcDb3dPolylineVertex
 10
35.8187
 20
13.0261
 30
0.0
 70
    32
  0
SEQEND
  5
29A
100
AcDbEntity
  8
LAYER2
 62
   250
  0
POLYLINE
  5
29B
100
AcDbEntity
  8
LAYER2
  6
CONTINUOUS
 62
   250
100
AcDb3dPolyline
 66
     1
 10
0.0
 20
0.0
 30
0.0
 70
     8
  0
VERTEX
  5
29C
100
AcDbEntity
  8
LAYER2
  6
CONTINUOUS
 62
   250
100
AcDbVertex
100
AcDb3dPolylineVertex
 10
37.1996
 20
15.8448
 30
0.0
 70
    32
  0
VERTEX
  5
29D
100
AcDbEntity
  8
LAYER2
  6
CONTINUOUS
 62
   250
100
AcDbVertex
100
AcDb3dPolylineVertex
 10
37.1996
 20
13.0261
 30
0.0
 70
    32
  0
SEQEND
  5
29E
100
AcDbEntity
  8
LAYER2
 62
   250
  0
POLYLINE
  5
29F
100
AcDbEntity
  8
LAYER2
  6
CONTINUOUS
 62
   250
100
AcDb3dPolyline
 66
     1
 10
0.0
 20
0.0
 30
0.0
 70
     8
  0
VERTEX
  5
2A0
100
AcDbEntity
  8
LAYER2
  6
CONTINUOUS
 62
   250
100
AcDbVertex
100
AcDb3dPolylineVertex
 10
44.0305
 20
15.8448
 30
0.0
 70
    32
  0
VERTEX
  5
2A1
100
AcDbEntity
  8
LAYER2
  6
CONTINUOUS
 62
   250
100
AcDbVertex
100
AcDb3dPolylineVertex
 10
35.8187
 20
15.8448
 30
0.0
 70
    32
  0
SEQEND
  5
2A2
100
AcDbEntity
  8
LAYER2
 62
   250
  0
POLYLINE
  5
2A3
100
AcDbEntity
  8
LAYER2
  6
CONTINUOUS
 62
   250
100
AcDb3dPolyline
 66
     1
 10
0.0
 20
0.0
 30
0.0
 70
     8
  0
VERTEX
  5
2A4
100
AcDbEntity
  8
LAYER2
  6
CONTINUOUS
 62
   250
100
AcDbVertex
100
AcDb3dPolylineVertex
 10
35.8187
 20
13.4194
 30
0.0
 70
    32
  0
VERTEX
  5
2A5
100
AcDbEntity
  8
LAYER2
  6
CONTINUOUS
 62
   250
100
AcDbVertex
100
AcDb3dPolylineVertex
 10
35.8187
 20
13.0261
 30
0.0
 70
    32
  0
SEQEND
  5
2A6
100
AcDbEntity
  8
LAYER2
 62
   250
  0
TEXT
  5
2A7
100
AcDbEntity
  8
LAYER2
 62
   250
100
AcDbText
 10
35.9685
 20
14.2939
 30
0.0
 40
0.1875
  1
WO #
 41
0.8924
 72
     5
 11
36.6378
 21
14.2939
 31
0.0
100
AcDbText
  0
TEXT
  5
2A8
100
AcDbEntity
  8
LAYER7
 62
   250
100
AcDbText
 10
30.164
 20
13.1375
 30
0.0
 40
0.1705
  1
REV
 41
0.956794
 72
     5
 11
30.6534
 21
13.1375
 31
0.0
100
AcDbText
  0
TEXT
  5
2A9
100
AcDbEntity
  8
LAYER7
 62
   250
100
AcDbText
 10
32.1876
 20
13.1375
 30
0.0
 40
0.1705
  1
Remarks
 41
0.837801
 72
     5
 11
33.1399
 21
13.1375
 31
0.0
100
AcDbText
  0
TEXT
  5
2AA
100
AcDbEntity
  8
LAYER7
 62
   250
100
AcDbText
 10
35.0441
 20
13.1375
 30
0.0
 40
0.1705
  1
Date
 41
0.804266
 72
     5
 11
35.5469
 21
13.1375
 31
0.0
100
AcDbText
  0
POLYLINE
  5
2AF
100
AcDbEntity
  8
LAYER7
  6
CONTINUOUS
 62
   250
100
AcDb3dPolyline
 66
     1
 10
0.0
 20
0.0
 30
0.0
 70
     8
  0
VERTEX
  5
2B0
100
AcDbEntity
  8
LAYER7
  6
CONTINUOUS
 62
   250
100
AcDbVertex
100
AcDb3dPolylineVertex
 10
35.8187
 20
13.4194
 30
0.0
 70
    32
  0
VERTEX
  5
2B1
100
AcDbEntity
  8
LAYER7
  6
CONTINUOUS
 62
   250
100
AcDbVertex
100
AcDb3dPolylineVertex
 10
30.0848
 20
13.4194
 30
0.0
 70
    32
  0
SEQEND
  5
2B2
100
AcDbEntity
  8
LAYER7
 62
   250
  0
POLYLINE
  5
2B3
100
AcDbEntity
  8
LAYER2
  6
CONTINUOUS
 62
   250
100
AcDb3dPolyline
 66
     1
 10
0.0
 20
0.0
 30
0.0
 70
     8
  0
VERTEX
  5
2B4
100
AcDbEntity
  8
LAYER2
  6
CONTINUOUS
 62
   250
100
AcDbVertex
100
AcDb3dPolylineVertex
 10
30.7404
 20
13.4194
 30
0.0
 70
    32
  0
VERTEX
  5
2B5
100
AcDbEntity
  8
LAYER2
  6
CONTINUOUS
 62
   250
100
AcDbVertex
100
AcDb3dPolylineVertex
 10
30.7404
 20
13.0261
 30
0.0
 70
    32
  0
SEQEND
  5
2B6
100
AcDbEntity
  8
LAYER2
 62
   250
  0
POLYLINE
  5
2B7
100
AcDbEntity
  8
LAYER2
  6
CONTINUOUS
 62
   250
100
AcDb3dPolyline
 66
     1
 10
0.0
 20
0.0
 30
0.0
 70
     8
  0
VERTEX
  5
2B8
100
AcDbEntity
  8
LAYER2
  6
CONTINUOUS
 62
   250
100
AcDbVertex
100
AcDb3dPolylineVertex
 10
34.674
 20
13.4194
 30
0.0
 70
    32
  0
VERTEX
  5
2B9
100
AcDbEntity
  8
LAYER2
  6
CONTINUOUS
 62
   250
100
AcDbVertex
100
AcDb3dPolylineVertex
 10
34.674
 20
13.0261
 30
0.0
 70
    32
  0
SEQEND
  5
2BA
100
AcDbEntity
  8
LAYER2
 62
   250
  0
POLYLINE
  5
2BF
100
AcDbEntity
  8
LAYER2
  6
CONTINUOUS
 62
   250
100
AcDb3dPolyline
 66
     1
 10
0.0
 20
0.0
 30
0.0
 70
     8
  0
VERTEX
  5
2C0
100
AcDbEntity
  8
LAYER2
  6
CONTINUOUS
 62
   250
100
AcDbVertex
100
AcDb3dPolylineVertex
 10
30.0848
 20
13.4194
 30
0.0
 70
    32
  0
VERTEX
  5
2C1
100
AcDbEntity
  8
LAYER2
  6
CONTINUOUS
 62
   250
100
AcDbVertex
100
AcDb3dPolylineVertex
 10
30.0848
 20
13.0261
 30
0.0
 70
    32
  0
SEQEND
  5
2C2
100
AcDbEntity
  8
LAYER2
 62
   250
  0
POINT
  5
2C5
100
AcDbEntity
  8
LAYER7
100
AcDbPoint
 10
30.2178
 20
13.535
 30
0.0
  0
POINT
  5
2C8
100
AcDbEntity
  8
LAYER7
100
AcDbPoint
 10
30.8779
 20
13.535
 30
0.0
  0
POINT
  5
2CB
100
AcDbEntity
  8
LAYER7
100
AcDbPoint
 10
34.7748
 20
13.535
 30
0.0
  0
POLYLINE
  5
2D4
100
AcDbEntity
  8
LAYER2
  6
CONTINUOUS
 62
   250
100
AcDb3dPolyline
 66
     1
 10
0.0
 20
0.0
 30
0.0
 70
     8
  0
VERTEX
  5
2D5
100
AcDbEntity
  8
LAYER2
  6
CONTINUOUS
 62
   250
100
AcDbVertex
100
AcDb3dPolylineVertex
 10
44.0305
 20
24.8504
 30
0.0
 70
    32
  0
VERTEX
  5
2D6
100
AcDbEntity
  8
LAYER2
  6
CONTINUOUS
 62
   250
100
AcDbVertex
100
AcDb3dPolylineVertex
 10
44.0305
 20
13.0261
 30
0.0
 70
    32
  0
SEQEND
  5
2D7
100
AcDbEntity
  8
LAYER2
 62
   250
  0
POLYLINE
  5
2D8
100
AcDbEntity
  8
LAYER2
  6
CONTINUOUS
 62
   250
100
AcDb3dPolyline
 66
     1
 10
0.0
 20
0.0
 30
0.0
 70
     8
  0
VERTEX
  5
2D9
100
AcDbEntity
  8
LAYER2
  6
CONTINUOUS
 62
   250
100
AcDbVertex
100
AcDb3dPolylineVertex
 10
44.0305
 20
13.0261
 30
0.0
 70
    32
  0
VERTEX
  5
2DA
100
AcDbEntity
  8
LAYER2
  6
CONTINUOUS
 62
   250
100
AcDbVertex
100
AcDb3dPolylineVertex
 10
27.9672
 20
13.0261
 30
0.0
 70
    32
  0
SEQEND
  5
2DB
100
AcDbEntity
  8
LAYER2
 62
   250
  0
POLYLINE
  5
2DC
100
AcDbEntity
  8
LAYER2
  6
CONTINUOUS
 62
   250
100
AcDb3dPolyline
 66
     1
 10
0.0
 20
0.0
 30
0.0
 70
     8
  0
VERTEX
  5
2DD
100
AcDbEntity
  8
LAYER2
  6
CONTINUOUS
 62
   250
100
AcDbVertex
100
AcDb3dPolylineVertex
 10
27.9672
 20
13.0261
 30
0.0
 70
    32
  0
VERTEX
  5
2DE
100
AcDbEntity
  8
LAYER2
  6
CONTINUOUS
 62
   250
100
AcDbVertex
100
AcDb3dPolylineVertex
 10
27.0183
 20
13.0261
 30
0.0
 70
    32
  0
VERTEX
  5
2DF
100
AcDbEntity
  8
LAYER2
  6
CONTINUOUS
 62
   250
100
AcDbVertex
100
AcDb3dPolylineVertex
 10
27.0183
 20
24.8504
 30
0.0
 70
    32
  0
SEQEND
  5
2E0
100
AcDbEntity
  8
LAYER2
 62
   250
  0
POLYLINE
  5
2E1
100
AcDbEntity
  8
LAYER1
  6
CONTINUOUS
 62
   250
100
AcDb3dPolyline
 66
     1
 10
0.0
 20
0.0
 30
0.0
 70
     8
  0
VERTEX
  5
2E2
100
AcDbEntity
  8
LAYER1
  6
CONTINUOUS
 62
   250
100
AcDbVertex
100
AcDb3dPolylineVertex
 10
27.0183
 20
24.8504
 30
0.0
 70
    32
  0
VERTEX
  5
2E3
100
AcDbEntity
  8
LAYER1
  6
CONTINUOUS
 62
   250
100
AcDbVertex
100
AcDb3dPolylineVertex
 10
44.0305
 20
24.8504
 30
0.0
 70
    32
  0
SEQEND
  5
2E4
100
AcDbEntity
  8
LAYER1
 62
   250
  0
TEXT
  5
2E5
100
AcDbEntity
  8
LAYER4
 62
   250
100
AcDbText
 10
27.8308
 20
19.8688
 30
0.0
 40
0.15
  1
TOLERANCE ON ALL DIMENSIONS
 41
0.942564
 72
     5
 11
31.5068
 21
19.8688
 31
0.0
100
AcDbText
  0
TEXT
  5
2E6
100
AcDbEntity
  8
LAYER4
 62
   250
100
AcDbText
 10
28.9978
 20
19.4824
 30
0.0
 40
0.15
  1
+0.005
 41
0.943259
 72
     5
 11
29.6345
 21
19.4824
 31
0.0
100
AcDbText
  0
TEXT
  5
2E7
100
AcDbEntity
  8
LAYER4
 62
   250
100
AcDbText
 10
28.9978
 20
19.1824
 30
0.0
 40
0.15
  1
-0.005
 41
0.865778
 72
     5
 11
29.5822
 21
19.1824
 31
0.0
100
AcDbText
  0
TEXT
  5
2E8
100
AcDbEntity
  8
LAYER4
 62
   250
100
AcDbText
 10
41.354601
 20
15.502512
 30
0.0
 40
0.15
  1
TRI-M ENGINEERING
100
AcDbText
  0
TEXT
  5
2E9
100
AcDbEntity
  8
LAYER4
 62
   250
100
AcDbText
 10
37.4932
 20
13.5007
 30
0.0
 40
0.15
  1
jef
100
AcDbText
  0
TEXT
  5
2EB
100
AcDbEntity
  8
LAYER4
 62
   250
100
AcDbText
 10
37.4737
 20
13.8622
 30
0.0
 40
0.15
  1
06/1/99
100
AcDbText
  0
POINT
  5
2EC
100
AcDbEntity
  8
LAYER1
100
AcDbPoint
 10
42.0341
 20
21.3402
 30
0.0
  0
POLYLINE
  5
2ED
100
AcDbEntity
  8
LAYER1
  6
CONTINUOUS
 62
   250
100
AcDb3dPolyline
 66
     1
 10
0.0
 20
0.0
 30
0.0
 70
     8
  0
VERTEX
  5
2EE
100
AcDbEntity
  8
LAYER1
  6
CONTINUOUS
 62
   250
100
AcDbVertex
100
AcDb3dPolylineVertex
 10
41.5341
 20
21.3402
 30
0.0
 70
    32
  0
VERTEX
  5
2EF
100
AcDbEntity
  8
LAYER1
  6
CONTINUOUS
 62
   250
100
AcDbVertex
100
AcDb3dPolylineVertex
 10
41.4691
 20
21.3402
 30
0.0
 70
    32
  0
SEQEND
  5
2F0
100
AcDbEntity
  8
LAYER1
 62
   250
  0
ARC
  5
2F1
100
AcDbEntity
  8
LAYER1
  6
CONTINUOUS
 62
   250
100
AcDbCircle
 10
41.5341
 20
21.3402
 30
0.0
 40
0.065
100
AcDbArc
 50
90.0
 51
270.0
  0
POLYLINE
  5
2F2
100
AcDbEntity
  8
LAYER1
  6
CONTINUOUS
 62
   250
100
AcDb3dPolyline
 66
     1
 10
0.0
 20
0.0
 30
0.0
 70
     8
  0
VERTEX
  5
2F3
100
AcDbEntity
  8
LAYER1
  6
CONTINUOUS
 62
   250
100
AcDbVertex
100
AcDb3dPolylineVertex
 10
41.5341
 20
21.4052
 30
0.0
 70
    32
  0
VERTEX
  5
2F4
100
AcDbEntity
  8
LAYER1
  6
CONTINUOUS
 62
   250
100
AcDbVertex
100
AcDb3dPolylineVertex
 10
41.6623
 20
21.4052
 30
0.0
 70
    32
  0
SEQEND
  5
2F5
100
AcDbEntity
  8
LAYER1
 62
   250
  0
POLYLINE
  5
2F6
100
AcDbEntity
  8
LAYER1
  6
CONTINUOUS
 62
   250
100
AcDb3dPolyline
 66
     1
 10
0.0
 20
0.0
 30
0.0
 70
     8
  0
VERTEX
  5
2F7
100
AcDbEntity
  8
LAYER1
  6
CONTINUOUS
 62
   250
100
AcDbVertex
100
AcDb3dPolylineVertex
 10
42.5341
 20
21.3402
 30
0.0
 70
    32
  0
VERTEX
  5
2F8
100
AcDbEntity
  8
LAYER1
  6
CONTINUOUS
 62
   250
100
AcDbVertex
100
AcDb3dPolylineVertex
 10
42.5991
 20
21.3402
 30
0.0
 70
    32
  0
SEQEND
  5
2F9
100
AcDbEntity
  8
LAYER1
 62
   250
  0
ARC
  5
2FA
100
AcDbEntity
  8
LAYER1
  6
CONTINUOUS
 62
   250
100
AcDbCircle
 10
42.5341
 20
21.3402
 30
0.0
 40
0.065
100
AcDbArc
 50
270.0
 51
90.0
  0
POLYLINE
  5
2FB
100
AcDbEntity
  8
LAYER1
  6
CONTINUOUS
 62
   250
100
AcDb3dPolyline
 66
     1
 10
0.0
 20
0.0
 30
0.0
 70
     8
  0
VERTEX
  5
2FC
100
AcDbEntity
  8
LAYER1
  6
CONTINUOUS
 62
   250
100
AcDbVertex
100
AcDb3dPolylineVertex
 10
42.5341
 20
21.4052
 30
0.0
 70
    32
  0
VERTEX
  5
2FD
100
AcDbEntity
  8
LAYER1
  6
CONTINUOUS
 62
   250
100
AcDbVertex
100
AcDb3dPolylineVertex
 10
42.4058
 20
21.4052
 30
0.0
 70
    32
  0
SEQEND
  5
2FE
100
AcDbEntity
  8
LAYER1
 62
   250
  0
POLYLINE
  5
2FF
100
AcDbEntity
  8
LAYER1
  6
CONTINUOUS
 62
   250
100
AcDb3dPolyline
 66
     1
 10
0.0
 20
0.0
 30
0.0
 70
     8
  0
VERTEX
  5
300
100
AcDbEntity
  8
LAYER1
  6
CONTINUOUS
 62
   250
100
AcDbVertex
100
AcDb3dPolylineVertex
 10
42.0341
 20
21.5652
 30
0.0
 70
    32
  0
VERTEX
  5
301
100
AcDbEntity
  8
LAYER1
  6
CONTINUOUS
 62
   250
100
AcDbVertex
100
AcDb3dPolylineVertex
 10
41.6936
 20
21.5652
 30
0.0
 70
    32
  0
SEQEND
  5
302
100
AcDbEntity
  8
LAYER1
 62
   250
  0
ARC
  5
303
100
AcDbEntity
  8
LAYER1
  6
CONTINUOUS
 62
   250
100
AcDbCircle
 10
41.6936
 20
21.5152
 30
0.0
 40
0.05
100
AcDbArc
 50
90.0
 51
190.0
  0
POLYLINE
  5
304
100
AcDbEntity
  8
LAYER1
  6
CONTINUOUS
 62
   250
100
AcDb3dPolyline
 66
     1
 10
0.0
 20
0.0
 30
0.0
 70
     8
  0
VERTEX
  5
305
100
AcDbEntity
  8
LAYER1
  6
CONTINUOUS
 62
   250
100
AcDbVertex
100
AcDb3dPolylineVertex
 10
41.6444
 20
21.5065
 30
0.0
 70
    32
  0
VERTEX
  5
306
100
AcDbEntity
  8
LAYER1
  6
CONTINUOUS
 62
   250
100
AcDbVertex
100
AcDb3dPolylineVertex
 10
41.6623
 20
21.4052
 30
0.0
 70
    32
  0
SEQEND
  5
307
100
AcDbEntity
  8
LAYER1
 62
   250
  0
POLYLINE
  5
308
100
AcDbEntity
  8
LAYER1
  6
CONTINUOUS
 62
   250
100
AcDb3dPolyline
 66
     1
 10
0.0
 20
0.0
 30
0.0
 70
     8
  0
VERTEX
  5
309
100
AcDbEntity
  8
LAYER1
  6
CONTINUOUS
 62
   250
100
AcDbVertex
100
AcDb3dPolylineVertex
 10
42.0341
 20
21.5652
 30
0.0
 70
    32
  0
VERTEX
  5
30A
100
AcDbEntity
  8
LAYER1
  6
CONTINUOUS
 62
   250
100
AcDbVertex
100
AcDb3dPolylineVertex
 10
42.3745
 20
21.5652
 30
0.0
 70
    32
  0
SEQEND
  5
30B
100
AcDbEntity
  8
LAYER1
 62
   250
  0
ARC
  5
30C
100
AcDbEntity
  8
LAYER1
  6
CONTINUOUS
 62
   250
100
AcDbCircle
 10
42.3745
 20
21.5152
 30
0.0
 40
0.05
100
AcDbArc
 50
350.0
 51
90.0
  0
POLYLINE
  5
30D
100
AcDbEntity
  8
LAYER1
  6
CONTINUOUS
 62
   250
100
AcDb3dPolyline
 66
     1
 10
0.0
 20
0.0
 30
0.0
 70
     8
  0
VERTEX
  5
30E
100
AcDbEntity
  8
LAYER1
  6
CONTINUOUS
 62
   250
100
AcDbVertex
100
AcDb3dPolylineVertex
 10
42.4237
 20
21.5065
 30
0.0
 70
    32
  0
VERTEX
  5
30F
100
AcDbEntity
  8
LAYER1
  6
CONTINUOUS
 62
   250
100
AcDbVertex
100
AcDb3dPolylineVertex
 10
42.4058
 20
21.4052
 30
0.0
 70
    32
  0
SEQEND
  5
310
100
AcDbEntity
  8
LAYER1
 62
   250
  0
ARC
  5
311
100
AcDbEntity
  8
LAYER1
  6
CONTINUOUS
 62
   250
100
AcDbCircle
 10
42.3128
 20
21.1652
 30
0.0
 40
0.05
100
AcDbArc
 50
270.0
 51
350.0
  0
POLYLINE
  5
312
100
AcDbEntity
  8
LAYER1
  6
CONTINUOUS
 62
   250
100
AcDb3dPolyline
 66
     1
 10
0.0
 20
0.0
 30
0.0
 70
     8
  0
VERTEX
  5
313
100
AcDbEntity
  8
LAYER1
  6
CONTINUOUS
 62
   250
100
AcDbVertex
100
AcDb3dPolylineVertex
 10
42.3128
 20
21.1152
 30
0.0
 70
    32
  0
VERTEX
  5
314
100
AcDbEntity
  8
LAYER1
  6
CONTINUOUS
 62
   250
100
AcDbVertex
100
AcDb3dPolylineVertex
 10
41.7554
 20
21.1152
 30
0.0
 70
    32
  0
SEQEND
  5
315
100
AcDbEntity
  8
LAYER1
 62
   250
  0
ARC
  5
316
100
AcDbEntity
  8
LAYER1
  6
CONTINUOUS
 62
   250
100
AcDbCircle
 10
41.7554
 20
21.1652
 30
0.0
 40
0.05
100
AcDbArc
 50
190.0
 51
270.0
  0
POLYLINE
  5
317
100
AcDbEntity
  8
LAYER1
  6
CONTINUOUS
 62
   250
100
AcDb3dPolyline
 66
     1
 10
0.0
 20
0.0
 30
0.0
 70
     8
  0
VERTEX
  5
318
100
AcDbEntity
  8
LAYER1
  6
CONTINUOUS
 62
   250
100
AcDbVertex
100
AcDb3dPolylineVertex
 10
41.7061
 20
21.1565
 30
0.0
 70
    32
  0
VERTEX
  5
319
100
AcDbEntity
  8
LAYER1
  6
CONTINUOUS
 62
   250
100
AcDbVertex
100
AcDb3dPolylineVertex
 10
41.6888
 20
21.2545
 30
0.0
 70
    32
  0
SEQEND
  5
31A
100
AcDbEntity
  8
LAYER1
 62
   250
  0
ARC
  5
31B
100
AcDbEntity
  8
LAYER1
  6
CONTINUOUS
 62
   250
100
AcDbCircle
 10
41.6642
 20
21.2502
 30
0.0
 40
0.025
100
AcDbArc
 50
10.0
 51
90.0
  0
POLYLINE
  5
31C
100
AcDbEntity
  8
LAYER1
  6
CONTINUOUS
 62
   250
100
AcDb3dPolyline
 66
     1
 10
0.0
 20
0.0
 30
0.0
 70
     8
  0
VERTEX
  5
31D
100
AcDbEntity
  8
LAYER1
  6
CONTINUOUS
 62
   250
100
AcDbVertex
100
AcDb3dPolylineVertex
 10
41.6642
 20
21.2752
 30
0.0
 70
    32
  0
VERTEX
  5
31E
100
AcDbEntity
  8
LAYER1
  6
CONTINUOUS
 62
   250
100
AcDbVertex
100
AcDb3dPolylineVertex
 10
41.5341
 20
21.2752
 30
0.0
 70
    32
  0
SEQEND
  5
31F
100
AcDbEntity
  8
LAYER1
 62
   250
  0
POLYLINE
  5
320
100
AcDbEntity
  8
LAYER1
  6
CONTINUOUS
 62
   250
100
AcDb3dPolyline
 66
     1
 10
0.0
 20
0.0
 30
0.0
 70
     8
  0
VERTEX
  5
321
100
AcDbEntity
  8
LAYER1
  6
CONTINUOUS
 62
   250
100
AcDbVertex
100
AcDb3dPolylineVertex
 10
42.362
 20
21.1565
 30
0.0
 70
    32
  0
VERTEX
  5
322
100
AcDbEntity
  8
LAYER1
  6
CONTINUOUS
 62
   250
100
AcDbVertex
100
AcDb3dPolylineVertex
 10
42.3793
 20
21.2545
 30
0.0
 70
    32
  0
SEQEND
  5
323
100
AcDbEntity
  8
LAYER1
 62
   250
  0
ARC
  5
324
100
AcDbEntity
  8
LAYER1
  6
CONTINUOUS
 62
   250
100
AcDbCircle
 10
42.4039
 20
21.2502
 30
0.0
 40
0.025
100
AcDbArc
 50
90.0
 51
170.0
  0
POLYLINE
  5
325
100
AcDbEntity
  8
LAYER1
  6
CONTINUOUS
 62
   250
100
AcDb3dPolyline
 66
     1
 10
0.0
 20
0.0
 30
0.0
 70
     8
  0
VERTEX
  5
326
100
AcDbEntity
  8
LAYER1
  6
CONTINUOUS
 62
   250
100
AcDbVertex
100
AcDb3dPolylineVertex
 10
42.4039
 20
21.2752
 30
0.0
 70
    32
  0
VERTEX
  5
327
100
AcDbEntity
  8
LAYER1
  6
CONTINUOUS
 62
   250
100
AcDbVertex
100
AcDb3dPolylineVertex
 10
42.5341
 20
21.2752
 30
0.0
 70
    32
  0
SEQEND
  5
328
100
AcDbEntity
  8
LAYER1
 62
   250
  0
POINT
  5
329
100
AcDbEntity
  8
LAYER1
100
AcDbPoint
 10
42.2799
 20
22.7343
 30
0.0
  0
POLYLINE
  5
32A
100
AcDbEntity
  8
LAYER1
  6
CONTINUOUS
 62
   250
100
AcDb3dPolyline
 66
     1
 10
0.0
 20
0.0
 30
0.0
 70
     8
  0
VERTEX
  5
32B
100
AcDbEntity
  8
LAYER1
  6
CONTINUOUS
 62
   250
100
AcDbVertex
100
AcDb3dPolylineVertex
 10
41.3349
 20
22.7343
 30
0.0
 70
    32
  0
VERTEX
  5
32C
100
AcDbEntity
  8
LAYER1
  6
CONTINUOUS
 62
   250
100
AcDbVertex
100
AcDb3dPolylineVertex
 10
41.2699
 20
22.7343
 30
0.0
 70
    32
  0
SEQEND
  5
32D
100
AcDbEntity
  8
LAYER1
 62
   250
  0
ARC
  5
32E
100
AcDbEntity
  8
LAYER1
  6
CONTINUOUS
 62
   250
100
AcDbCircle
 10
41.3349
 20
22.7343
 30
0.0
 40
0.065
100
AcDbArc
 50
90.0
 51
270.0
  0
POLYLINE
  5
32F
100
AcDbEntity
  8
LAYER1
  6
CONTINUOUS
 62
   250
100
AcDb3dPolyline
 66
     1
 10
0.0
 20
0.0
 30
0.0
 70
     8
  0
VERTEX
  5
330
100
AcDbEntity
  8
LAYER1
  6
CONTINUOUS
 62
   250
100
AcDbVertex
100
AcDb3dPolylineVertex
 10
41.3349
 20
22.7993
 30
0.0
 70
    32
  0
VERTEX
  5
331
100
AcDbEntity
  8
LAYER1
  6
CONTINUOUS
 62
   250
100
AcDbVertex
100
AcDb3dPolylineVertex
 10
41.4533
 20
22.7993
 30
0.0
 70
    32
  0
SEQEND
  5
332
100
AcDbEntity
  8
LAYER1
 62
   250
  0
ARC
  5
333
100
AcDbEntity
  8
LAYER1
  6
CONTINUOUS
 62
   250
100
AcDbCircle
 10
41.4533
 20
22.8243
 30
0.0
 40
0.025
100
AcDbArc
 50
270.0
 51
10.0
  0
POLYLINE
  5
334
100
AcDbEntity
  8
LAYER1
  6
CONTINUOUS
 62
   250
100
AcDb3dPolyline
 66
     1
 10
0.0
 20
0.0
 30
0.0
 70
     8
  0
VERTEX
  5
335
100
AcDbEntity
  8
LAYER1
  6
CONTINUOUS
 62
   250
100
AcDbVertex
100
AcDb3dPolylineVertex
 10
41.3349
 20
22.6693
 30
0.0
 70
    32
  0
VERTEX
  5
336
100
AcDbEntity
  8
LAYER1
  6
CONTINUOUS
 62
   250
100
AcDbVertex
100
AcDb3dPolylineVertex
 10
41.485
 20
22.6693
 30
0.0
 70
    32
  0
SEQEND
  5
337
100
AcDbEntity
  8
LAYER1
 62
   250
  0
ARC
  5
338
100
AcDbEntity
  8
LAYER1
  6
CONTINUOUS
 62
   250
100
AcDbCircle
 10
41.485
 20
22.6443
 30
0.0
 40
0.025
100
AcDbArc
 50
10.0
 51
90.0
  0
POLYLINE
  5
339
100
AcDbEntity
  8
LAYER1
  6
CONTINUOUS
 62
   250
100
AcDb3dPolyline
 66
     1
 10
0.0
 20
0.0
 30
0.0
 70
     8
  0
VERTEX
  5
33A
100
AcDbEntity
  8
LAYER1
  6
CONTINUOUS
 62
   250
100
AcDbVertex
100
AcDb3dPolylineVertex
 10
41.4779
 20
22.8286
 30
0.0
 70
    32
  0
VERTEX
  5
33B
100
AcDbEntity
  8
LAYER1
  6
CONTINUOUS
 62
   250
100
AcDbVertex
100
AcDb3dPolylineVertex
 10
41.4652
 20
22.9006
 30
0.0
 70
    32
  0
SEQEND
  5
33C
100
AcDbEntity
  8
LAYER1
 62
   250
  0
ARC
  5
33D
100
AcDbEntity
  8
LAYER1
  6
CONTINUOUS
 62
   250
100
AcDbCircle
 10
41.5144
 20
22.9093
 30
0.0
 40
0.05
100
AcDbArc
 50
90.0
 51
190.0
  0
POLYLINE
  5
33E
100
AcDbEntity
  8
LAYER1
  6
CONTINUOUS
 62
   250
100
AcDb3dPolyline
 66
     1
 10
0.0
 20
0.0
 30
0.0
 70
     8
  0
VERTEX
  5
33F
100
AcDbEntity
  8
LAYER1
  6
CONTINUOUS
 62
   250
100
AcDbVertex
100
AcDb3dPolylineVertex
 10
41.5096
 20
22.6486
 30
0.0
 70
    32
  0
VERTEX
  5
340
100
AcDbEntity
  8
LAYER1
  6
CONTINUOUS
 62
   250
100
AcDbVertex
100
AcDb3dPolylineVertex
 10
41.5269
 20
22.5506
 30
0.0
 70
    32
  0
SEQEND
  5
341
100
AcDbEntity
  8
LAYER1
 62
   250
  0
ARC
  5
342
100
AcDbEntity
  8
LAYER1
  6
CONTINUOUS
 62
   250
100
AcDbCircle
 10
41.5762
 20
22.5593
 30
0.0
 40
0.05
100
AcDbArc
 50
190.0
 51
270.0
  0
POLYLINE
  5
343
100
AcDbEntity
  8
LAYER1
  6
CONTINUOUS
 62
   250
100
AcDb3dPolyline
 66
     1
 10
0.0
 20
0.0
 30
0.0
 70
     8
  0
VERTEX
  5
344
100
AcDbEntity
  8
LAYER1
  6
CONTINUOUS
 62
   250
100
AcDbVertex
100
AcDb3dPolylineVertex
 10
43.2249
 20
22.7343
 30
0.0
 70
    32
  0
VERTEX
  5
345
100
AcDbEntity
  8
LAYER1
  6
CONTINUOUS
 62
   250
100
AcDbVertex
100
AcDb3dPolylineVertex
 10
43.2899
 20
22.7343
 30
0.0
 70
    32
  0
SEQEND
  5
346
100
AcDbEntity
  8
LAYER1
 62
   250
  0
ARC
  5
347
100
AcDbEntity
  8
LAYER1
  6
CONTINUOUS
 62
   250
100
AcDbCircle
 10
43.2249
 20
22.7343
 30
0.0
 40
0.065
100
AcDbArc
 50
270.0
 51
90.0
  0
POLYLINE
  5
348
100
AcDbEntity
  8
LAYER1
  6
CONTINUOUS
 62
   250
100
AcDb3dPolyline
 66
     1
 10
0.0
 20
0.0
 30
0.0
 70
     8
  0
VERTEX
  5
349
100
AcDbEntity
  8
LAYER1
  6
CONTINUOUS
 62
   250
100
AcDbVertex
100
AcDb3dPolylineVertex
 10
43.2249
 20
22.7993
 30
0.0
 70
    32
  0
VERTEX
  5
34A
100
AcDbEntity
  8
LAYER1
  6
CONTINUOUS
 62
   250
100
AcDbVertex
100
AcDb3dPolylineVertex
 10
43.1064
 20
22.7993
 30
0.0
 70
    32
  0
SEQEND
  5
34B
100
AcDbEntity
  8
LAYER1
 62
   250
  0
ARC
  5
34C
100
AcDbEntity
  8
LAYER1
  6
CONTINUOUS
 62
   250
100
AcDbCircle
 10
43.1064
 20
22.8243
 30
0.0
 40
0.025
100
AcDbArc
 50
170.0
 51
270.0
  0
POLYLINE
  5
34D
100
AcDbEntity
  8
LAYER1
  6
CONTINUOUS
 62
   250
100
AcDb3dPolyline
 66
     1
 10
0.0
 20
0.0
 30
0.0
 70
     8
  0
VERTEX
  5
34E
100
AcDbEntity
  8
LAYER1
  6
CONTINUOUS
 62
   250
100
AcDbVertex
100
AcDb3dPolylineVertex
 10
43.2249
 20
22.6693
 30
0.0
 70
    32
  0
VERTEX
  5
34F
100
AcDbEntity
  8
LAYER1
  6
CONTINUOUS
 62
   250
100
AcDbVertex
100
AcDb3dPolylineVertex
 10
43.0747
 20
22.6693
 30
0.0
 70
    32
  0
SEQEND
  5
350
100
AcDbEntity
  8
LAYER1
 62
   250
  0
ARC
  5
351
100
AcDbEntity
  8
LAYER1
  6
CONTINUOUS
 62
   250
100
AcDbCircle
 10
43.0747
 20
22.6443
 30
0.0
 40
0.025
100
AcDbArc
 50
90.0
 51
170.0
  0
POLYLINE
  5
352
100
AcDbEntity
  8
LAYER1
  6
CONTINUOUS
 62
   250
100
AcDb3dPolyline
 66
     1
 10
0.0
 20
0.0
 30
0.0
 70
     8
  0
VERTEX
  5
353
100
AcDbEntity
  8
LAYER1
  6
CONTINUOUS
 62
   250
100
AcDbVertex
100
AcDb3dPolylineVertex
 10
43.0818
 20
22.8286
 30
0.0
 70
    32
  0
VERTEX
  5
354
100
AcDbEntity
  8
LAYER1
  6
CONTINUOUS
 62
   250
100
AcDbVertex
100
AcDb3dPolylineVertex
 10
43.0945
 20
22.9006
 30
0.0
 70
    32
  0
SEQEND
  5
355
100
AcDbEntity
  8
LAYER1
 62
   250
  0
ARC
  5
356
100
AcDbEntity
  8
LAYER1
  6
CONTINUOUS
 62
   250
100
AcDbCircle
 10
43.0453
 20
22.9093
 30
0.0
 40
0.05
100
AcDbArc
 50
350.0
 51
90.0
  0
POLYLINE
  5
357
100
AcDbEntity
  8
LAYER1
  6
CONTINUOUS
 62
   250
100
AcDb3dPolyline
 66
     1
 10
0.0
 20
0.0
 30
0.0
 70
     8
  0
VERTEX
  5
358
100
AcDbEntity
  8
LAYER1
  6
CONTINUOUS
 62
   250
100
AcDbVertex
100
AcDb3dPolylineVertex
 10
43.0501
 20
22.6486
 30
0.0
 70
    32
  0
VERTEX
  5
359
100
AcDbEntity
  8
LAYER1
  6
CONTINUOUS
 62
   250
100
AcDbVertex
100
AcDb3dPolylineVertex
 10
43.0328
 20
22.5506
 30
0.0
 70
    32
  0
SEQEND
  5
35A
100
AcDbEntity
  8
LAYER1
 62
   250
  0
ARC
  5
35B
100
AcDbEntity
  8
LAYER1
  6
CONTINUOUS
 62
   250
100
AcDbCircle
 10
42.9836
 20
22.5593
 30
0.0
 40
0.05
100
AcDbArc
 50
270.0
 51
350.0
  0
POLYLINE
  5
35C
100
AcDbEntity
  8
LAYER1
  6
CONTINUOUS
 62
   250
100
AcDb3dPolyline
 66
     1
 10
0.0
 20
0.0
 30
0.0
 70
     8
  0
VERTEX
  5
35D
100
AcDbEntity
  8
LAYER1
  6
CONTINUOUS
 62
   250
100
AcDbVertex
100
AcDb3dPolylineVertex
 10
41.5144
 20
22.9593
 30
0.0
 70
    32
  0
VERTEX
  5
35E
100
AcDbEntity
  8
LAYER1
  6
CONTINUOUS
 62
   250
100
AcDbVertex
100
AcDb3dPolylineVertex
 10
43.0453
 20
22.9593
 30
0.0
 70
    32
  0
SEQEND
  5
35F
100
AcDbEntity
  8
LAYER1
 62
   250
  0
POLYLINE
  5
360
100
AcDbEntity
  8
LAYER1
  6
CONTINUOUS
 62
   250
100
AcDb3dPolyline
 66
     1
 10
0.0
 20
0.0
 30
0.0
 70
     8
  0
VERTEX
  5
361
100
AcDbEntity
  8
LAYER1
  6
CONTINUOUS
 62
   250
100
AcDbVertex
100
AcDb3dPolylineVertex
 10
41.5762
 20
22.5093
 30
0.0
 70
    32
  0
VERTEX
  5
362
100
AcDbEntity
  8
LAYER1
  6
CONTINUOUS
 62
   250
100
AcDbVertex
100
AcDb3dPolylineVertex
 10
42.9836
 20
22.5093
 30
0.0
 70
    32
  0
SEQEND
  5
363
100
AcDbEntity
  8
LAYER1
 62
   250
  0
ARC
  5
364
100
AcDbEntity
  8
LAYER1
  6
CONTINUOUS
 62
   250
100
AcDbCircle
 10
34.7198
 20
22.7743
 30
0.0
 40
0.065
100
AcDbArc
 50
90.0
 51
270.0
  0
POLYLINE
  5
365
100
AcDbEntity
  8
LAYER1
  6
CONTINUOUS
 62
   250
100
AcDb3dPolyline
 66
     1
 10
0.0
 20
0.0
 30
0.0
 70
     8
  0
VERTEX
  5
366
100
AcDbEntity
  8
LAYER1
  6
CONTINUOUS
 62
   250
100
AcDbVertex
100
AcDb3dPolylineVertex
 10
34.7198
 20
22.8393
 30
0.0
 70
    32
  0
VERTEX
  5
367
100
AcDbEntity
  8
LAYER1
  6
CONTINUOUS
 62
   250
100
AcDbVertex
100
AcDb3dPolylineVertex
 10
34.8382
 20
22.8393
 30
0.0
 70
    32
  0
SEQEND
  5
368
100
AcDbEntity
  8
LAYER1
 62
   250
  0
ARC
  5
369
100
AcDbEntity
  8
LAYER1
  6
CONTINUOUS
 62
   250
100
AcDbCircle
 10
34.8382
 20
22.8643
 30
0.0
 40
0.025
100
AcDbArc
 50
270.0
 51
10.0
  0
POLYLINE
  5
36A
100
AcDbEntity
  8
LAYER1
  6
CONTINUOUS
 62
   250
100
AcDb3dPolyline
 66
     1
 10
0.0
 20
0.0
 30
0.0
 70
     8
  0
VERTEX
  5
36B
100
AcDbEntity
  8
LAYER1
  6
CONTINUOUS
 62
   250
100
AcDbVertex
100
AcDb3dPolylineVertex
 10
34.7198
 20
22.7093
 30
0.0
 70
    32
  0
VERTEX
  5
36C
100
AcDbEntity
  8
LAYER1
  6
CONTINUOUS
 62
   250
100
AcDbVertex
100
AcDb3dPolylineVertex
 10
34.87
 20
22.7093
 30
0.0
 70
    32
  0
SEQEND
  5
36D
100
AcDbEntity
  8
LAYER1
 62
   250
  0
ARC
  5
36E
100
AcDbEntity
  8
LAYER1
  6
CONTINUOUS
 62
   250
100
AcDbCircle
 10
34.87
 20
22.6843
 30
0.0
 40
0.025
100
AcDbArc
 50
10.0
 51
90.0
  0
POLYLINE
  5
36F
100
AcDbEntity
  8
LAYER1
  6
CONTINUOUS
 62
   250
100
AcDb3dPolyline
 66
     1
 10
0.0
 20
0.0
 30
0.0
 70
     8
  0
VERTEX
  5
370
100
AcDbEntity
  8
LAYER1
  6
CONTINUOUS
 62
   250
100
AcDbVertex
100
AcDb3dPolylineVertex
 10
34.8628
 20
22.8686
 30
0.0
 70
    32
  0
VERTEX
  5
371
100
AcDbEntity
  8
LAYER1
  6
CONTINUOUS
 62
   250
100
AcDbVertex
100
AcDb3dPolylineVertex
 10
34.8501
 20
22.9406
 30
0.0
 70
    32
  0
SEQEND
  5
372
100
AcDbEntity
  8
LAYER1
 62
   250
  0
ARC
  5
373
100
AcDbEntity
  8
LAYER1
  6
CONTINUOUS
 62
   250
100
AcDbCircle
 10
34.8994
 20
22.9493
 30
0.0
 40
0.05
100
AcDbArc
 50
90.0
 51
190.0
  0
POLYLINE
  5
374
100
AcDbEntity
  8
LAYER1
  6
CONTINUOUS
 62
   250
100
AcDb3dPolyline
 66
     1
 10
0.0
 20
0.0
 30
0.0
 70
     8
  0
VERTEX
  5
375
100
AcDbEntity
  8
LAYER1
  6
CONTINUOUS
 62
   250
100
AcDbVertex
100
AcDb3dPolylineVertex
 10
34.8946
 20
22.6886
 30
0.0
 70
    32
  0
VERTEX
  5
376
100
AcDbEntity
  8
LAYER1
  6
CONTINUOUS
 62
   250
100
AcDbVertex
100
AcDb3dPolylineVertex
 10
34.9119
 20
22.5906
 30
0.0
 70
    32
  0
SEQEND
  5
377
100
AcDbEntity
  8
LAYER1
 62
   250
  0
ARC
  5
378
100
AcDbEntity
  8
LAYER1
  6
CONTINUOUS
 62
   250
100
AcDbCircle
 10
34.9611
 20
22.5993
 30
0.0
 40
0.05
100
AcDbArc
 50
190.0
 51
270.0
  0
ARC
  5
379
100
AcDbEntity
  8
LAYER1
  6
CONTINUOUS
 62
   250
100
AcDbCircle
 10
36.6098
 20
22.7743
 30
0.0
 40
0.065
100
AcDbArc
 50
270.0
 51
90.0
  0
POLYLINE
  5
37A
100
AcDbEntity
  8
LAYER1
  6
CONTINUOUS
 62
   250
100
AcDb3dPolyline
 66
     1
 10
0.0
 20
0.0
 30
0.0
 70
     8
  0
VERTEX
  5
37B
100
AcDbEntity
  8
LAYER1
  6
CONTINUOUS
 62
   250
100
AcDbVertex
100
AcDb3dPolylineVertex
 10
36.6098
 20
22.8393
 30
0.0
 70
    32
  0
VERTEX
  5
37C
100
AcDbEntity
  8
LAYER1
  6
CONTINUOUS
 62
   250
100
AcDbVertex
100
AcDb3dPolylineVertex
 10
36.4914
 20
22.8393
 30
0.0
 70
    32
  0
SEQEND
  5
37D
100
AcDbEntity
  8
LAYER1
 62
   250
  0
ARC
  5
37E
100
AcDbEntity
  8
LAYER1
  6
CONTINUOUS
 62
   250
100
AcDbCircle
 10
36.4914
 20
22.8643
 30
0.0
 40
0.025
100
AcDbArc
 50
170.0
 51
270.0
  0
POLYLINE
  5
37F
100
AcDbEntity
  8
LAYER1
  6
CONTINUOUS
 62
   250
100
AcDb3dPolyline
 66
     1
 10
0.0
 20
0.0
 30
0.0
 70
     8
  0
VERTEX
  5
380
100
AcDbEntity
  8
LAYER1
  6
CONTINUOUS
 62
   250
100
AcDbVertex
100
AcDb3dPolylineVertex
 10
36.6098
 20
22.7093
 30
0.0
 70
    32
  0
VERTEX
  5
381
100
AcDbEntity
  8
LAYER1
  6
CONTINUOUS
 62
   250
100
AcDbVertex
100
AcDb3dPolylineVertex
 10
36.4596
 20
22.7093
 30
0.0
 70
    32
  0
SEQEND
  5
382
100
AcDbEntity
  8
LAYER1
 62
   250
  0
ARC
  5
383
100
AcDbEntity
  8
LAYER1
  6
CONTINUOUS
 62
   250
100
AcDbCircle
 10
36.4596
 20
22.6843
 30
0.0
 40
0.025
100
AcDbArc
 50
90.0
 51
170.0
  0
POLYLINE
  5
384
100
AcDbEntity
  8
LAYER1
  6
CONTINUOUS
 62
   250
100
AcDb3dPolyline
 66
     1
 10
0.0
 20
0.0
 30
0.0
 70
     8
  0
VERTEX
  5
385
100
AcDbEntity
  8
LAYER1
  6
CONTINUOUS
 62
   250
100
AcDbVertex
100
AcDb3dPolylineVertex
 10
36.4668
 20
22.8686
 30
0.0
 70
    32
  0
VERTEX
  5
386
100
AcDbEntity
  8
LAYER1
  6
CONTINUOUS
 62
   250
100
AcDbVertex
100
AcDb3dPolylineVertex
 10
36.4794
 20
22.9406
 30
0.0
 70
    32
  0
SEQEND
  5
387
100
AcDbEntity
  8
LAYER1
 62
   250
  0
ARC
  5
388
100
AcDbEntity
  8
LAYER1
  6
CONTINUOUS
 62
   250
100
AcDbCircle
 10
36.4302
 20
22.9493
 30
0.0
 40
0.05
100
AcDbArc
 50
350.0
 51
90.0
  0
POLYLINE
  5
389
100
AcDbEntity
  8
LAYER1
  6
CONTINUOUS
 62
   250
100
AcDb3dPolyline
 66
     1
 10
0.0
 20
0.0
 30
0.0
 70
     8
  0
VERTEX
  5
38A
100
AcDbEntity
  8
LAYER1
  6
CONTINUOUS
 62
   250
100
AcDbVertex
100
AcDb3dPolylineVertex
 10
36.435
 20
22.6886
 30
0.0
 70
    32
  0
VERTEX
  5
38B
100
AcDbEntity
  8
LAYER1
  6
CONTINUOUS
 62
   250
100
AcDbVertex
100
AcDb3dPolylineVertex
 10
36.4177
 20
22.5906
 30
0.0
 70
    32
  0
SEQEND
  5
38C
100
AcDbEntity
  8
LAYER1
 62
   250
  0
ARC
  5
38D
100
AcDbEntity
  8
LAYER1
  6
CONTINUOUS
 62
   250
100
AcDbCircle
 10
36.3685
 20
22.5993
 30
0.0
 40
0.05
100
AcDbArc
 50
270.0
 51
350.0
  0
POLYLINE
  5
38E
100
AcDbEntity
  8
LAYER1
  6
CONTINUOUS
 62
   250
100
AcDb3dPolyline
 66
     1
 10
0.0
 20
0.0
 30
0.0
 70
     8
  0
VERTEX
  5
38F
100
AcDbEntity
  8
LAYER1
  6
CONTINUOUS
 62
   250
100
AcDbVertex
100
AcDb3dPolylineVertex
 10
34.8994
 20
22.9993
 30
0.0
 70
    32
  0
VERTEX
  5
390
100
AcDbEntity
  8
LAYER1
  6
CONTINUOUS
 62
   250
100
AcDbVertex
100
AcDb3dPolylineVertex
 10
36.4302
 20
22.9993
 30
0.0
 70
    32
  0
SEQEND
  5
391
100
AcDbEntity
  8
LAYER1
 62
   250
  0
POLYLINE
  5
392
100
AcDbEntity
  8
LAYER1
  6
CONTINUOUS
 62
   250
100
AcDb3dPolyline
 66
     1
 10
0.0
 20
0.0
 30
0.0
 70
     8
  0
VERTEX
  5
393
100
AcDbEntity
  8
LAYER1
  6
CONTINUOUS
 62
   250
100
AcDbVertex
100
AcDb3dPolylineVertex
 10
34.9611
 20
22.5493
 30
0.0
 70
    32
  0
VERTEX
  5
394
100
AcDbEntity
  8
LAYER1
  6
CONTINUOUS
 62
   250
100
AcDbVertex
100
AcDb3dPolylineVertex
 10
36.3685
 20
22.5493
 30
0.0
 70
    32
  0
SEQEND
  5
395
100
AcDbEntity
  8
LAYER1
 62
   250
  0
ARC
  5
396
100
AcDbEntity
  8
LAYER1
  6
CONTINUOUS
 62
   250
100
AcDbCircle
 10
34.7198
 20
18.4743
 30
0.0
 40
0.065
100
AcDbArc
 50
90.0
 51
270.0
  0
POLYLINE
  5
397
100
AcDbEntity
  8
LAYER1
  6
CONTINUOUS
 62
   250
100
AcDb3dPolyline
 66
     1
 10
0.0
 20
0.0
 30
0.0
 70
     8
  0
VERTEX
  5
398
100
AcDbEntity
  8
LAYER1
  6
CONTINUOUS
 62
   250
100
AcDbVertex
100
AcDb3dPolylineVertex
 10
34.7198
 20
18.4093
 30
0.0
 70
    32
  0
VERTEX
  5
399
100
AcDbEntity
  8
LAYER1
  6
CONTINUOUS
 62
   250
100
AcDbVertex
100
AcDb3dPolylineVertex
 10
34.8382
 20
18.4093
 30
0.0
 70
    32
  0
SEQEND
  5
39A
100
AcDbEntity
  8
LAYER1
 62
   250
  0
ARC
  5
39B
100
AcDbEntity
  8
LAYER1
  6
CONTINUOUS
 62
   250
100
AcDbCircle
 10
34.8382
 20
18.3843
 30
0.0
 40
0.025
100
AcDbArc
 50
350.0
 51
90.0
  0
POLYLINE
  5
39C
100
AcDbEntity
  8
LAYER1
  6
CONTINUOUS
 62
   250
100
AcDb3dPolyline
 66
     1
 10
0.0
 20
0.0
 30
0.0
 70
     8
  0
VERTEX
  5
39D
100
AcDbEntity
  8
LAYER1
  6
CONTINUOUS
 62
   250
100
AcDbVertex
100
AcDb3dPolylineVertex
 10
34.7198
 20
18.5393
 30
0.0
 70
    32
  0
VERTEX
  5
39E
100
AcDbEntity
  8
LAYER1
  6
CONTINUOUS
 62
   250
100
AcDbVertex
100
AcDb3dPolylineVertex
 10
34.87
 20
18.5393
 30
0.0
 70
    32
  0
SEQEND
  5
39F
100
AcDbEntity
  8
LAYER1
 62
   250
  0
ARC
  5
3A0
100
AcDbEntity
  8
LAYER1
  6
CONTINUOUS
 62
   250
100
AcDbCircle
 10
34.87
 20
18.5643
 30
0.0
 40
0.025
100
AcDbArc
 50
270.0
 51
350.0
  0
POLYLINE
  5
3A1
100
AcDbEntity
  8
LAYER1
  6
CONTINUOUS
 62
   250
100
AcDb3dPolyline
 66
     1
 10
0.0
 20
0.0
 30
0.0
 70
     8
  0
VERTEX
  5
3A2
100
AcDbEntity
  8
LAYER1
  6
CONTINUOUS
 62
   250
100
AcDbVertex
100
AcDb3dPolylineVertex
 10
34.8628
 20
18.3799
 30
0.0
 70
    32
  0
VERTEX
  5
3A3
100
AcDbEntity
  8
LAYER1
  6
CONTINUOUS
 62
   250
100
AcDbVertex
100
AcDb3dPolylineVertex
 10
34.8501
 20
18.308
 30
0.0
 70
    32
  0
SEQEND
  5
3A4
100
AcDbEntity
  8
LAYER1
 62
   250
  0
ARC
  5
3A5
100
AcDbEntity
  8
LAYER1
  6
CONTINUOUS
 62
   250
100
AcDbCircle
 10
34.8994
 20
18.2993
 30
0.0
 40
0.05
100
AcDbArc
 50
170.0
 51
270.0
  0
POLYLINE
  5
3A6
100
AcDbEntity
  8
LAYER1
  6
CONTINUOUS
 62
   250
100
AcDb3dPolyline
 66
     1
 10
0.0
 20
0.0
 30
0.0
 70
     8
  0
VERTEX
  5
3A7
100
AcDbEntity
  8
LAYER1
  6
CONTINUOUS
 62
   250
100
AcDbVertex
100
AcDb3dPolylineVertex
 10
34.8946
 20
18.5599
 30
0.0
 70
    32
  0
VERTEX
  5
3A8
100
AcDbEntity
  8
LAYER1
  6
CONTINUOUS
 62
   250
100
AcDbVertex
100
AcDb3dPolylineVertex
 10
34.9119
 20
18.658
 30
0.0
 70
    32
  0
SEQEND
  5
3A9
100
AcDbEntity
  8
LAYER1
 62
   250
  0
ARC
  5
3AA
100
AcDbEntity
  8
LAYER1
  6
CONTINUOUS
 62
   250
100
AcDbCircle
 10
34.9611
 20
18.6493
 30
0.0
 40
0.05
100
AcDbArc
 50
90.0
 51
170.0
  0
ARC
  5
3AB
100
AcDbEntity
  8
LAYER1
  6
CONTINUOUS
 62
   250
100
AcDbCircle
 10
36.6098
 20
18.4743
 30
0.0
 40
0.065
100
AcDbArc
 50
270.0
 51
90.0
  0
POLYLINE
  5
3AC
100
AcDbEntity
  8
LAYER1
  6
CONTINUOUS
 62
   250
100
AcDb3dPolyline
 66
     1
 10
0.0
 20
0.0
 30
0.0
 70
     8
  0
VERTEX
  5
3AD
100
AcDbEntity
  8
LAYER1
  6
CONTINUOUS
 62
   250
100
AcDbVertex
100
AcDb3dPolylineVertex
 10
36.6098
 20
18.4093
 30
0.0
 70
    32
  0
VERTEX
  5
3AE
100
AcDbEntity
  8
LAYER1
  6
CONTINUOUS
 62
   250
100
AcDbVertex
100
AcDb3dPolylineVertex
 10
36.4914
 20
18.4093
 30
0.0
 70
    32
  0
SEQEND
  5
3AF
100
AcDbEntity
  8
LAYER1
 62
   250
  0
ARC
  5
3B0
100
AcDbEntity
  8
LAYER1
  6
CONTINUOUS
 62
   250
100
AcDbCircle
 10
36.4914
 20
18.3843
 30
0.0
 40
0.025
100
AcDbArc
 50
90.0
 51
190.0
  0
POLYLINE
  5
3B1
100
AcDbEntity
  8
LAYER1
  6
CONTINUOUS
 62
   250
100
AcDb3dPolyline
 66
     1
 10
0.0
 20
0.0
 30
0.0
 70
     8
  0
VERTEX
  5
3B2
100
AcDbEntity
  8
LAYER1
  6
CONTINUOUS
 62
   250
100
AcDbVertex
100
AcDb3dPolylineVertex
 10
36.6098
 20
18.5393
 30
0.0
 70
    32
  0
VERTEX
  5
3B3
100
AcDbEntity
  8
LAYER1
  6
CONTINUOUS
 62
   250
100
AcDbVertex
100
AcDb3dPolylineVertex
 10
36.4596
 20
18.5393
 30
0.0
 70
    32
  0
SEQEND
  5
3B4
100
AcDbEntity
  8
LAYER1
 62
   250
  0
ARC
  5
3B5
100
AcDbEntity
  8
LAYER1
  6
CONTINUOUS
 62
   250
100
AcDbCircle
 10
36.4596
 20
18.5643
 30
0.0
 40
0.025
100
AcDbArc
 50
190.0
 51
270.0
  0
POLYLINE
  5
3B6
100
AcDbEntity
  8
LAYER1
  6
CONTINUOUS
 62
   250
100
AcDb3dPolyline
 66
     1
 10
0.0
 20
0.0
 30
0.0
 70
     8
  0
VERTEX
  5
3B7
100
AcDbEntity
  8
LAYER1
  6
CONTINUOUS
 62
   250
100
AcDbVertex
100
AcDb3dPolylineVertex
 10
36.4668
 20
18.3799
 30
0.0
 70
    32
  0
VERTEX
  5
3B8
100
AcDbEntity
  8
LAYER1
  6
CONTINUOUS
 62
   250
100
AcDbVertex
100
AcDb3dPolylineVertex
 10
36.4794
 20
18.308
 30
0.0
 70
    32
  0
SEQEND
  5
3B9
100
AcDbEntity
  8
LAYER1
 62
   250
  0
ARC
  5
3BA
100
AcDbEntity
  8
LAYER1
  6
CONTINUOUS
 62
   250
100
AcDbCircle
 10
36.4302
 20
18.2993
 30
0.0
 40
0.05
100
AcDbArc
 50
270.0
 51
10.0
  0
POLYLINE
  5
3BB
100
AcDbEntity
  8
LAYER1
  6
CONTINUOUS
 62
   250
100
AcDb3dPolyline
 66
     1
 10
0.0
 20
0.0
 30
0.0
 70
     8
  0
VERTEX
  5
3BC
100
AcDbEntity
  8
LAYER1
  6
CONTINUOUS
 62
   250
100
AcDbVertex
100
AcDb3dPolylineVertex
 10
36.435
 20
18.5599
 30
0.0
 70
    32
  0
VERTEX
  5
3BD
100
AcDbEntity
  8
LAYER1
  6
CONTINUOUS
 62
   250
100
AcDbVertex
100
AcDb3dPolylineVertex
 10
36.4177
 20
18.658
 30
0.0
 70
    32
  0
SEQEND
  5
3BE
100
AcDbEntity
  8
LAYER1
 62
   250
  0
ARC
  5
3BF
100
AcDbEntity
  8
LAYER1
  6
CONTINUOUS
 62
   250
100
AcDbCircle
 10
36.3685
 20
18.6493
 30
0.0
 40
0.05
100
AcDbArc
 50
10.0
 51
90.0
  0
POLYLINE
  5
3C0
100
AcDbEntity
  8
LAYER1
  6
CONTINUOUS
 62
   250
100
AcDb3dPolyline
 66
     1
 10
0.0
 20
0.0
 30
0.0
 70
     8
  0
VERTEX
  5
3C1
100
AcDbEntity
  8
LAYER1
  6
CONTINUOUS
 62
   250
100
AcDbVertex
100
AcDb3dPolylineVertex
 10
34.8994
 20
18.2493
 30
0.0
 70
    32
  0
VERTEX
  5
3C2
100
AcDbEntity
  8
LAYER1
  6
CONTINUOUS
 62
   250
100
AcDbVertex
100
AcDb3dPolylineVertex
 10
36.4302
 20
18.2493
 30
0.0
 70
    32
  0
SEQEND
  5
3C3
100
AcDbEntity
  8
LAYER1
 62
   250
  0
POLYLINE
  5
3C4
100
AcDbEntity
  8
LAYER1
  6
CONTINUOUS
 62
   250
100
AcDb3dPolyline
 66
     1
 10
0.0
 20
0.0
 30
0.0
 70
     8
  0
VERTEX
  5
3C5
100
AcDbEntity
  8
LAYER1
  6
CONTINUOUS
 62
   250
100
AcDbVertex
100
AcDb3dPolylineVertex
 10
34.9611
 20
18.6993
 30
0.0
 70
    32
  0
VERTEX
  5
3C6
100
AcDbEntity
  8
LAYER1
  6
CONTINUOUS
 62
   250
100
AcDbVertex
100
AcDb3dPolylineVertex
 10
36.3685
 20
18.6993
 30
0.0
 70
    32
  0
SEQEND
  5
3C7
100
AcDbEntity
  8
LAYER1
 62
   250
  0
ARC
  5
3C8
100
AcDbEntity
  8
LAYER1
  6
CONTINUOUS
 62
   250
100
AcDbCircle
 10
33.5498
 20
19.2493
 30
0.0
 40
0.065
100
AcDbArc
 50
180.0
 51
0.0
  0
POLYLINE
  5
3C9
100
AcDbEntity
  8
LAYER1
  6
CONTINUOUS
 62
   250
100
AcDb3dPolyline
 66
     1
 10
0.0
 20
0.0
 30
0.0
 70
     8
  0
VERTEX
  5
3CA
100
AcDbEntity
  8
LAYER1
  6
CONTINUOUS
 62
   250
100
AcDbVertex
100
AcDb3dPolylineVertex
 10
33.4848
 20
19.2493
 30
0.0
 70
    32
  0
VERTEX
  5
3CB
100
AcDbEntity
  8
LAYER1
  6
CONTINUOUS
 62
   250
100
AcDbVertex
100
AcDb3dPolylineVertex
 10
33.4848
 20
19.3775
 30
0.0
 70
    32
  0
SEQEND
  5
3CC
100
AcDbEntity
  8
LAYER1
 62
   250
  0
ARC
  5
3CD
100
AcDbEntity
  8
LAYER1
  6
CONTINUOUS
 62
   250
100
AcDbCircle
 10
33.5498
 20
20.2493
 30
0.0
 40
0.065
100
AcDbArc
 50
0.0
 51
180.0
  0
POLYLINE
  5
3CE
100
AcDbEntity
  8
LAYER1
  6
CONTINUOUS
 62
   250
100
AcDb3dPolyline
 66
     1
 10
0.0
 20
0.0
 30
0.0
 70
     8
  0
VERTEX
  5
3CF
100
AcDbEntity
  8
LAYER1
  6
CONTINUOUS
 62
   250
100
AcDbVertex
100
AcDb3dPolylineVertex
 10
33.4848
 20
20.2493
 30
0.0
 70
    32
  0
VERTEX
  5
3D0
100
AcDbEntity
  8
LAYER1
  6
CONTINUOUS
 62
   250
100
AcDbVertex
100
AcDb3dPolylineVertex
 10
33.4848
 20
20.1211
 30
0.0
 70
    32
  0
SEQEND
  5
3D1
100
AcDbEntity
  8
LAYER1
 62
   250
  0
ARC
  5
3D2
100
AcDbEntity
  8
LAYER1
  6
CONTINUOUS
 62
   250
100
AcDbCircle
 10
33.3748
 20
19.4089
 30
0.0
 40
0.05
100
AcDbArc
 50
180.0
 51
280.0
  0
POLYLINE
  5
3D3
100
AcDbEntity
  8
LAYER1
  6
CONTINUOUS
 62
   250
100
AcDb3dPolyline
 66
     1
 10
0.0
 20
0.0
 30
0.0
 70
     8
  0
VERTEX
  5
3D4
100
AcDbEntity
  8
LAYER1
  6
CONTINUOUS
 62
   250
100
AcDbVertex
100
AcDb3dPolylineVertex
 10
33.3835
 20
19.3596
 30
0.0
 70
    32
  0
VERTEX
  5
3D5
100
AcDbEntity
  8
LAYER1
  6
CONTINUOUS
 62
   250
100
AcDbVertex
100
AcDb3dPolylineVertex
 10
33.4848
 20
19.3775
 30
0.0
 70
    32
  0
SEQEND
  5
3D6
100
AcDbEntity
  8
LAYER1
 62
   250
  0
ARC
  5
3D7
100
AcDbEntity
  8
LAYER1
  6
CONTINUOUS
 62
   250
100
AcDbCircle
 10
33.3748
 20
20.0897
 30
0.0
 40
0.05
100
AcDbArc
 50
80.0
 51
180.0
  0
POLYLINE
  5
3D8
100
AcDbEntity
  8
LAYER1
  6
CONTINUOUS
 62
   250
100
AcDb3dPolyline
 66
     1
 10
0.0
 20
0.0
 30
0.0
 70
     8
  0
VERTEX
  5
3D9
100
AcDbEntity
  8
LAYER1
  6
CONTINUOUS
 62
   250
100
AcDbVertex
100
AcDb3dPolylineVertex
 10
33.3835
 20
20.1389
 30
0.0
 70
    32
  0
VERTEX
  5
3DA
100
AcDbEntity
  8
LAYER1
  6
CONTINUOUS
 62
   250
100
AcDbVertex
100
AcDb3dPolylineVertex
 10
33.4848
 20
20.1211
 30
0.0
 70
    32
  0
SEQEND
  5
3DB
100
AcDbEntity
  8
LAYER1
 62
   250
  0
ARC
  5
3DC
100
AcDbEntity
  8
LAYER1
  6
CONTINUOUS
 62
   250
100
AcDbCircle
 10
33.7248
 20
20.028
 30
0.0
 40
0.05
100
AcDbArc
 50
0.0
 51
80.0
  0
POLYLINE
  5
3DD
100
AcDbEntity
  8
LAYER1
  6
CONTINUOUS
 62
   250
100
AcDb3dPolyline
 66
     1
 10
0.0
 20
0.0
 30
0.0
 70
     8
  0
VERTEX
  5
3DE
100
AcDbEntity
  8
LAYER1
  6
CONTINUOUS
 62
   250
100
AcDbVertex
100
AcDb3dPolylineVertex
 10
33.7748
 20
20.028
 30
0.0
 70
    32
  0
VERTEX
  5
3DF
100
AcDbEntity
  8
LAYER1
  6
CONTINUOUS
 62
   250
100
AcDbVertex
100
AcDb3dPolylineVertex
 10
33.7748
 20
19.4706
 30
0.0
 70
    32
  0
SEQEND
  5
3E0
100
AcDbEntity
  8
LAYER1
 62
   250
  0
ARC
  5
3E1
100
AcDbEntity
  8
LAYER1
  6
CONTINUOUS
 62
   250
100
AcDbCircle
 10
33.7248
 20
19.4706
 30
0.0
 40
0.05
100
AcDbArc
 50
280.0
 51
0.0
  0
POLYLINE
  5
3E2
100
AcDbEntity
  8
LAYER1
  6
CONTINUOUS
 62
   250
100
AcDb3dPolyline
 66
     1
 10
0.0
 20
0.0
 30
0.0
 70
     8
  0
VERTEX
  5
3E3
100
AcDbEntity
  8
LAYER1
  6
CONTINUOUS
 62
   250
100
AcDbVertex
100
AcDb3dPolylineVertex
 10
33.7335
 20
19.4213
 30
0.0
 70
    32
  0
VERTEX
  5
3E4
100
AcDbEntity
  8
LAYER1
  6
CONTINUOUS
 62
   250
100
AcDbVertex
100
AcDb3dPolylineVertex
 10
33.6355
 20
19.4041
 30
0.0
 70
    32
  0
SEQEND
  5
3E5
100
AcDbEntity
  8
LAYER1
 62
   250
  0
ARC
  5
3E6
100
AcDbEntity
  8
LAYER1
  6
CONTINUOUS
 62
   250
100
AcDbCircle
 10
33.6398
 20
19.3794
 30
0.0
 40
0.025
100
AcDbArc
 50
100.0
 51
180.0
  0
POLYLINE
  5
3E7
100
AcDbEntity
  8
LAYER1
  6
CONTINUOUS
 62
   250
100
AcDb3dPolyline
 66
     1
 10
0.0
 20
0.0
 30
0.0
 70
     8
  0
VERTEX
  5
3E8
100
AcDbEntity
  8
LAYER1
  6
CONTINUOUS
 62
   250
100
AcDbVertex
100
AcDb3dPolylineVertex
 10
33.6148
 20
19.3794
 30
0.0
 70
    32
  0
VERTEX
  5
3E9
100
AcDbEntity
  8
LAYER1
  6
CONTINUOUS
 62
   250
100
AcDbVertex
100
AcDb3dPolylineVertex
 10
33.6148
 20
19.2493
 30
0.0
 70
    32
  0
SEQEND
  5
3EA
100
AcDbEntity
  8
LAYER1
 62
   250
  0
POLYLINE
  5
3EB
100
AcDbEntity
  8
LAYER1
  6
CONTINUOUS
 62
   250
100
AcDb3dPolyline
 66
     1
 10
0.0
 20
0.0
 30
0.0
 70
     8
  0
VERTEX
  5
3EC
100
AcDbEntity
  8
LAYER1
  6
CONTINUOUS
 62
   250
100
AcDbVertex
100
AcDb3dPolylineVertex
 10
33.7335
 20
20.0772
 30
0.0
 70
    32
  0
VERTEX
  5
3ED
100
AcDbEntity
  8
LAYER1
  6
CONTINUOUS
 62
   250
100
AcDbVertex
100
AcDb3dPolylineVertex
 10
33.6355
 20
20.0945
 30
0.0
 70
    32
  0
SEQEND
  5
3EE
100
AcDbEntity
  8
LAYER1
 62
   250
  0
ARC
  5
3EF
100
AcDbEntity
  8
LAYER1
  6
CONTINUOUS
 62
   250
100
AcDbCircle
 10
33.6398
 20
20.1191
 30
0.0
 40
0.025
100
AcDbArc
 50
180.0
 51
260.0
  0
POLYLINE
  5
3F0
100
AcDbEntity
  8
LAYER1
  6
CONTINUOUS
 62
   250
100
AcDb3dPolyline
 66
     1
 10
0.0
 20
0.0
 30
0.0
 70
     8
  0
VERTEX
  5
3F1
100
AcDbEntity
  8
LAYER1
  6
CONTINUOUS
 62
   250
100
AcDbVertex
100
AcDb3dPolylineVertex
 10
33.6148
 20
20.1191
 30
0.0
 70
    32
  0
VERTEX
  5
3F2
100
AcDbEntity
  8
LAYER1
  6
CONTINUOUS
 62
   250
100
AcDbVertex
100
AcDb3dPolylineVertex
 10
33.6148
 20
20.2493
 30
0.0
 70
    32
  0
SEQEND
  5
3F3
100
AcDbEntity
  8
LAYER1
 62
   250
  0
ARC
  5
3F4
100
AcDbEntity
  8
LAYER1
  6
CONTINUOUS
 62
   250
100
AcDbCircle
 10
33.5498
 20
21.9993
 30
0.0
 40
0.065
100
AcDbArc
 50
0.0
 51
180.0
  0
POLYLINE
  5
3F5
100
AcDbEntity
  8
LAYER1
  6
CONTINUOUS
 62
   250
100
AcDb3dPolyline
 66
     1
 10
0.0
 20
0.0
 30
0.0
 70
     8
  0
VERTEX
  5
3F6
100
AcDbEntity
  8
LAYER1
  6
CONTINUOUS
 62
   250
100
AcDbVertex
100
AcDb3dPolylineVertex
 10
33.4848
 20
21.9993
 30
0.0
 70
    32
  0
VERTEX
  5
3F7
100
AcDbEntity
  8
LAYER1
  6
CONTINUOUS
 62
   250
100
AcDbVertex
100
AcDb3dPolylineVertex
 10
33.4848
 20
21.8711
 30
0.0
 70
    32
  0
SEQEND
  5
3F8
100
AcDbEntity
  8
LAYER1
 62
   250
  0
ARC
  5
3F9
100
AcDbEntity
  8
LAYER1
  6
CONTINUOUS
 62
   250
100
AcDbCircle
 10
33.5498
 20
20.9993
 30
0.0
 40
0.065
100
AcDbArc
 50
180.0
 51
0.0
  0
POLYLINE
  5
3FA
100
AcDbEntity
  8
LAYER1
  6
CONTINUOUS
 62
   250
100
AcDb3dPolyline
 66
     1
 10
0.0
 20
0.0
 30
0.0
 70
     8
  0
VERTEX
  5
3FB
100
AcDbEntity
  8
LAYER1
  6
CONTINUOUS
 62
   250
100
AcDbVertex
100
AcDb3dPolylineVertex
 10
33.4848
 20
20.9993
 30
0.0
 70
    32
  0
VERTEX
  5
3FC
100
AcDbEntity
  8
LAYER1
  6
CONTINUOUS
 62
   250
100
AcDbVertex
100
AcDb3dPolylineVertex
 10
33.4848
 20
21.1275
 30
0.0
 70
    32
  0
SEQEND
  5
3FD
100
AcDbEntity
  8
LAYER1
 62
   250
  0
POLYLINE
  5
3FE
100
AcDbEntity
  8
LAYER1
  6
CONTINUOUS
 62
   250
100
AcDb3dPolyline
 66
     1
 10
0.0
 20
0.0
 30
0.0
 70
     8
  0
VERTEX
  5
3FF
100
AcDbEntity
  8
LAYER1
  6
CONTINUOUS
 62
   250
100
AcDbVertex
100
AcDb3dPolylineVertex
 10
33.3248
 20
21.4993
 30
0.0
 70
    32
  0
VERTEX
  5
400
100
AcDbEntity
  8
LAYER1
  6
CONTINUOUS
 62
   250
100
AcDbVertex
100
AcDb3dPolylineVertex
 10
33.3248
 20
21.8397
 30
0.0
 70
    32
  0
SEQEND
  5
401
100
AcDbEntity
  8
LAYER1
 62
   250
  0
ARC
  5
402
100
AcDbEntity
  8
LAYER1
  6
CONTINUOUS
 62
   250
100
AcDbCircle
 10
33.3748
 20
21.8397
 30
0.0
 40
0.05
100
AcDbArc
 50
80.0
 51
180.0
  0
POLYLINE
  5
403
100
AcDbEntity
  8
LAYER1
  6
CONTINUOUS
 62
   250
100
AcDb3dPolyline
 66
     1
 10
0.0
 20
0.0
 30
0.0
 70
     8
  0
VERTEX
  5
404
100
AcDbEntity
  8
LAYER1
  6
CONTINUOUS
 62
   250
100
AcDbVertex
100
AcDb3dPolylineVertex
 10
33.3835
 20
21.8889
 30
0.0
 70
    32
  0
VERTEX
  5
405
100
AcDbEntity
  8
LAYER1
  6
CONTINUOUS
 62
   250
100
AcDbVertex
100
AcDb3dPolylineVertex
 10
33.4848
 20
21.8711
 30
0.0
 70
    32
  0
SEQEND
  5
406
100
AcDbEntity
  8
LAYER1
 62
   250
  0
POLYLINE
  5
407
100
AcDbEntity
  8
LAYER1
  6
CONTINUOUS
 62
   250
100
AcDb3dPolyline
 66
     1
 10
0.0
 20
0.0
 30
0.0
 70
     8
  0
VERTEX
  5
408
100
AcDbEntity
  8
LAYER1
  6
CONTINUOUS
 62
   250
100
AcDbVertex
100
AcDb3dPolylineVertex
 10
33.3248
 20
21.4993
 30
0.0
 70
    32
  0
VERTEX
  5
409
100
AcDbEntity
  8
LAYER1
  6
CONTINUOUS
 62
   250
100
AcDbVertex
100
AcDb3dPolylineVertex
 10
33.3248
 20
21.1589
 30
0.0
 70
    32
  0
SEQEND
  5
40A
100
AcDbEntity
  8
LAYER1
 62
   250
  0
ARC
  5
40B
100
AcDbEntity
  8
LAYER1
  6
CONTINUOUS
 62
   250
100
AcDbCircle
 10
33.3748
 20
21.1589
 30
0.0
 40
0.05
100
AcDbArc
 50
180.0
 51
280.0
  0
POLYLINE
  5
40C
100
AcDbEntity
  8
LAYER1
  6
CONTINUOUS
 62
   250
100
AcDb3dPolyline
 66
     1
 10
0.0
 20
0.0
 30
0.0
 70
     8
  0
VERTEX
  5
40D
100
AcDbEntity
  8
LAYER1
  6
CONTINUOUS
 62
   250
100
AcDbVertex
100
AcDb3dPolylineVertex
 10
33.3835
 20
21.1096
 30
0.0
 70
    32
  0
VERTEX
  5
40E
100
AcDbEntity
  8
LAYER1
  6
CONTINUOUS
 62
   250
100
AcDbVertex
100
AcDb3dPolylineVertex
 10
33.4848
 20
21.1275
 30
0.0
 70
    32
  0
SEQEND
  5
40F
100
AcDbEntity
  8
LAYER1
 62
   250
  0
ARC
  5
410
100
AcDbEntity
  8
LAYER1
  6
CONTINUOUS
 62
   250
100
AcDbCircle
 10
33.7248
 20
21.2206
 30
0.0
 40
0.05
100
AcDbArc
 50
280.0
 51
0.0
  0
POLYLINE
  5
411
100
AcDbEntity
  8
LAYER1
  6
CONTINUOUS
 62
   250
100
AcDb3dPolyline
 66
     1
 10
0.0
 20
0.0
 30
0.0
 70
     8
  0
VERTEX
  5
412
100
AcDbEntity
  8
LAYER1
  6
CONTINUOUS
 62
   250
100
AcDbVertex
100
AcDb3dPolylineVertex
 10
33.7748
 20
21.2206
 30
0.0
 70
    32
  0
VERTEX
  5
413
100
AcDbEntity
  8
LAYER1
  6
CONTINUOUS
 62
   250
100
AcDbVertex
100
AcDb3dPolylineVertex
 10
33.7748
 20
21.778
 30
0.0
 70
    32
  0
SEQEND
  5
414
100
AcDbEntity
  8
LAYER1
 62
   250
  0
ARC
  5
415
100
AcDbEntity
  8
LAYER1
  6
CONTINUOUS
 62
   250
100
AcDbCircle
 10
33.7248
 20
21.778
 30
0.0
 40
0.05
100
AcDbArc
 50
0.0
 51
80.0
  0
POLYLINE
  5
416
100
AcDbEntity
  8
LAYER1
  6
CONTINUOUS
 62
   250
100
AcDb3dPolyline
 66
     1
 10
0.0
 20
0.0
 30
0.0
 70
     8
  0
VERTEX
  5
417
100
AcDbEntity
  8
LAYER1
  6
CONTINUOUS
 62
   250
100
AcDbVertex
100
AcDb3dPolylineVertex
 10
33.7335
 20
21.8272
 30
0.0
 70
    32
  0
VERTEX
  5
418
100
AcDbEntity
  8
LAYER1
  6
CONTINUOUS
 62
   250
100
AcDbVertex
100
AcDb3dPolylineVertex
 10
33.6355
 20
21.8445
 30
0.0
 70
    32
  0
SEQEND
  5
419
100
AcDbEntity
  8
LAYER1
 62
   250
  0
ARC
  5
41A
100
AcDbEntity
  8
LAYER1
  6
CONTINUOUS
 62
   250
100
AcDbCircle
 10
33.6398
 20
21.8691
 30
0.0
 40
0.025
100
AcDbArc
 50
180.0
 51
260.0
  0
POLYLINE
  5
41B
100
AcDbEntity
  8
LAYER1
  6
CONTINUOUS
 62
   250
100
AcDb3dPolyline
 66
     1
 10
0.0
 20
0.0
 30
0.0
 70
     8
  0
VERTEX
  5
41C
100
AcDbEntity
  8
LAYER1
  6
CONTINUOUS
 62
   250
100
AcDbVertex
100
AcDb3dPolylineVertex
 10
33.6148
 20
21.8691
 30
0.0
 70
    32
  0
VERTEX
  5
41D
100
AcDbEntity
  8
LAYER1
  6
CONTINUOUS
 62
   250
100
AcDbVertex
100
AcDb3dPolylineVertex
 10
33.6148
 20
21.9993
 30
0.0
 70
    32
  0
SEQEND
  5
41E
100
AcDbEntity
  8
LAYER1
 62
   250
  0
POLYLINE
  5
41F
100
AcDbEntity
  8
LAYER1
  6
CONTINUOUS
 62
   250
100
AcDb3dPolyline
 66
     1
 10
0.0
 20
0.0
 30
0.0
 70
     8
  0
VERTEX
  5
420
100
AcDbEntity
  8
LAYER1
  6
CONTINUOUS
 62
   250
100
AcDbVertex
100
AcDb3dPolylineVertex
 10
33.7335
 20
21.1713
 30
0.0
 70
    32
  0
VERTEX
  5
421
100
AcDbEntity
  8
LAYER1
  6
CONTINUOUS
 62
   250
100
AcDbVertex
100
AcDb3dPolylineVertex
 10
33.6355
 20
21.1541
 30
0.0
 70
    32
  0
SEQEND
  5
422
100
AcDbEntity
  8
LAYER1
 62
   250
  0
ARC
  5
423
100
AcDbEntity
  8
LAYER1
  6
CONTINUOUS
 62
   250
100
AcDbCircle
 10
33.6398
 20
21.1294
 30
0.0
 40
0.025
100
AcDbArc
 50
100.0
 51
180.0
  0
POLYLINE
  5
424
100
AcDbEntity
  8
LAYER1
  6
CONTINUOUS
 62
   250
100
AcDb3dPolyline
 66
     1
 10
0.0
 20
0.0
 30
0.0
 70
     8
  0
VERTEX
  5
425
100
AcDbEntity
  8
LAYER1
  6
CONTINUOUS
 62
   250
100
AcDbVertex
100
AcDb3dPolylineVertex
 10
33.6148
 20
21.1294
 30
0.0
 70
    32
  0
VERTEX
  5
426
100
AcDbEntity
  8
LAYER1
  6
CONTINUOUS
 62
   250
100
AcDbVertex
100
AcDb3dPolylineVertex
 10
33.6148
 20
20.9993
 30
0.0
 70
    32
  0
SEQEND
  5
427
100
AcDbEntity
  8
LAYER1
 62
   250
  0
ARC
  5
428
100
AcDbEntity
  8
LAYER1
  6
CONTINUOUS
 62
   250
100
AcDbCircle
 10
37.7798
 20
19.2493
 30
0.0
 40
0.065
100
AcDbArc
 50
180.0
 51
0.0
  0
POLYLINE
  5
429
100
AcDbEntity
  8
LAYER1
  6
CONTINUOUS
 62
   250
100
AcDb3dPolyline
 66
     1
 10
0.0
 20
0.0
 30
0.0
 70
     8
  0
VERTEX
  5
42A
100
AcDbEntity
  8
LAYER1
  6
CONTINUOUS
 62
   250
100
AcDbVertex
100
AcDb3dPolylineVertex
 10
37.8448
 20
19.2493
 30
0.0
 70
    32
  0
VERTEX
  5
42B
100
AcDbEntity
  8
LAYER1
  6
CONTINUOUS
 62
   250
100
AcDbVertex
100
AcDb3dPolylineVertex
 10
37.8448
 20
19.3775
 30
0.0
 70
    32
  0
SEQEND
  5
42C
100
AcDbEntity
  8
LAYER1
 62
   250
  0
ARC
  5
42D
100
AcDbEntity
  8
LAYER1
  6
CONTINUOUS
 62
   250
100
AcDbCircle
 10
37.7798
 20
20.2493
 30
0.0
 40
0.065
100
AcDbArc
 50
0.0
 51
180.0
  0
POLYLINE
  5
42E
100
AcDbEntity
  8
LAYER1
  6
CONTINUOUS
 62
   250
100
AcDb3dPolyline
 66
     1
 10
0.0
 20
0.0
 30
0.0
 70
     8
  0
VERTEX
  5
42F
100
AcDbEntity
  8
LAYER1
  6
CONTINUOUS
 62
   250
100
AcDbVertex
100
AcDb3dPolylineVertex
 10
37.8448
 20
20.2493
 30
0.0
 70
    32
  0
VERTEX
  5
430
100
AcDbEntity
  8
LAYER1
  6
CONTINUOUS
 62
   250
100
AcDbVertex
100
AcDb3dPolylineVertex
 10
37.8448
 20
20.1211
 30
0.0
 70
    32
  0
SEQEND
  5
431
100
AcDbEntity
  8
LAYER1
 62
   250
  0
POLYLINE
  5
432
100
AcDbEntity
  8
LAYER1
  6
CONTINUOUS
 62
   250
100
AcDb3dPolyline
 66
     1
 10
0.0
 20
0.0
 30
0.0
 70
     8
  0
VERTEX
  5
433
100
AcDbEntity
  8
LAYER1
  6
CONTINUOUS
 62
   250
100
AcDbVertex
100
AcDb3dPolylineVertex
 10
38.0048
 20
19.7493
 30
0.0
 70
    32
  0
VERTEX
  5
434
100
AcDbEntity
  8
LAYER1
  6
CONTINUOUS
 62
   250
100
AcDbVertex
100
AcDb3dPolylineVertex
 10
38.0048
 20
19.4089
 30
0.0
 70
    32
  0
SEQEND
  5
435
100
AcDbEntity
  8
LAYER1
 62
   250
  0
ARC
  5
436
100
AcDbEntity
  8
LAYER1
  6
CONTINUOUS
 62
   250
100
AcDbCircle
 10
37.9548
 20
19.4089
 30
0.0
 40
0.05
100
AcDbArc
 50
260.0
 51
0.0
  0
POLYLINE
  5
437
100
AcDbEntity
  8
LAYER1
  6
CONTINUOUS
 62
   250
100
AcDb3dPolyline
 66
     1
 10
0.0
 20
0.0
 30
0.0
 70
     8
  0
VERTEX
  5
438
100
AcDbEntity
  8
LAYER1
  6
CONTINUOUS
 62
   250
100
AcDbVertex
100
AcDb3dPolylineVertex
 10
37.9461
 20
19.3596
 30
0.0
 70
    32
  0
VERTEX
  5
439
100
AcDbEntity
  8
LAYER1
  6
CONTINUOUS
 62
   250
100
AcDbVertex
100
AcDb3dPolylineVertex
 10
37.8448
 20
19.3775
 30
0.0
 70
    32
  0
SEQEND
  5
43A
100
AcDbEntity
  8
LAYER1
 62
   250
  0
POLYLINE
  5
43B
100
AcDbEntity
  8
LAYER1
  6
CONTINUOUS
 62
   250
100
AcDb3dPolyline
 66
     1
 10
0.0
 20
0.0
 30
0.0
 70
     8
  0
VERTEX
  5
43C
100
AcDbEntity
  8
LAYER1
  6
CONTINUOUS
 62
   250
100
AcDbVertex
100
AcDb3dPolylineVertex
 10
38.0048
 20
19.7493
 30
0.0
 70
    32
  0
VERTEX
  5
43D
100
AcDbEntity
  8
LAYER1
  6
CONTINUOUS
 62
   250
100
AcDbVertex
100
AcDb3dPolylineVertex
 10
38.0048
 20
20.0897
 30
0.0
 70
    32
  0
SEQEND
  5
43E
100
AcDbEntity
  8
LAYER1
 62
   250
  0
ARC
  5
43F
100
AcDbEntity
  8
LAYER1
  6
CONTINUOUS
 62
   250
100
AcDbCircle
 10
37.9548
 20
20.0897
 30
0.0
 40
0.05
100
AcDbArc
 50
0.0
 51
100.0
  0
POLYLINE
  5
440
100
AcDbEntity
  8
LAYER1
  6
CONTINUOUS
 62
   250
100
AcDb3dPolyline
 66
     1
 10
0.0
 20
0.0
 30
0.0
 70
     8
  0
VERTEX
  5
441
100
AcDbEntity
  8
LAYER1
  6
CONTINUOUS
 62
   250
100
AcDbVertex
100
AcDb3dPolylineVertex
 10
37.9461
 20
20.1389
 30
0.0
 70
    32
  0
VERTEX
  5
442
100
AcDbEntity
  8
LAYER1
  6
CONTINUOUS
 62
   250
100
AcDbVertex
100
AcDb3dPolylineVertex
 10
37.8448
 20
20.1211
 30
0.0
 70
    32
  0
SEQEND
  5
443
100
AcDbEntity
  8
LAYER1
 62
   250
  0
ARC
  5
444
100
AcDbEntity
  8
LAYER1
  6
CONTINUOUS
 62
   250
100
AcDbCircle
 10
37.6048
 20
20.028
 30
0.0
 40
0.05
100
AcDbArc
 50
100.0
 51
180.0
  0
POLYLINE
  5
445
100
AcDbEntity
  8
LAYER1
  6
CONTINUOUS
 62
   250
100
AcDb3dPolyline
 66
     1
 10
0.0
 20
0.0
 30
0.0
 70
     8
  0
VERTEX
  5
446
100
AcDbEntity
  8
LAYER1
  6
CONTINUOUS
 62
   250
100
AcDbVertex
100
AcDb3dPolylineVertex
 10
37.5548
 20
20.028
 30
0.0
 70
    32
  0
VERTEX
  5
447
100
AcDbEntity
  8
LAYER1
  6
CONTINUOUS
 62
   250
100
AcDbVertex
100
AcDb3dPolylineVertex
 10
37.5548
 20
19.4706
 30
0.0
 70
    32
  0
SEQEND
  5
448
100
AcDbEntity
  8
LAYER1
 62
   250
  0
ARC
  5
449
100
AcDbEntity
  8
LAYER1
  6
CONTINUOUS
 62
   250
100
AcDbCircle
 10
37.6048
 20
19.4706
 30
0.0
 40
0.05
100
AcDbArc
 50
180.0
 51
260.0
  0
POLYLINE
  5
44A
100
AcDbEntity
  8
LAYER1
  6
CONTINUOUS
 62
   250
100
AcDb3dPolyline
 66
     1
 10
0.0
 20
0.0
 30
0.0
 70
     8
  0
VERTEX
  5
44B
100
AcDbEntity
  8
LAYER1
  6
CONTINUOUS
 62
   250
100
AcDbVertex
100
AcDb3dPolylineVertex
 10
37.5961
 20
19.4213
 30
0.0
 70
    32
  0
VERTEX
  5
44C
100
AcDbEntity
  8
LAYER1
  6
CONTINUOUS
 62
   250
100
AcDbVertex
100
AcDb3dPolylineVertex
 10
37.6941
 20
19.4041
 30
0.0
 70
    32
  0
SEQEND
  5
44D
100
AcDbEntity
  8
LAYER1
 62
   250
  0
ARC
  5
44E
100
AcDbEntity
  8
LAYER1
  6
CONTINUOUS
 62
   250
100
AcDbCircle
 10
37.6898
 20
19.3794
 30
0.0
 40
0.025
100
AcDbArc
 50
0.0
 51
80.0
  0
POLYLINE
  5
44F
100
AcDbEntity
  8
LAYER1
  6
CONTINUOUS
 62
   250
100
AcDb3dPolyline
 66
     1
 10
0.0
 20
0.0
 30
0.0
 70
     8
  0
VERTEX
  5
450
100
AcDbEntity
  8
LAYER1
  6
CONTINUOUS
 62
   250
100
AcDbVertex
100
AcDb3dPolylineVertex
 10
37.7148
 20
19.3794
 30
0.0
 70
    32
  0
VERTEX
  5
451
100
AcDbEntity
  8
LAYER1
  6
CONTINUOUS
 62
   250
100
AcDbVertex
100
AcDb3dPolylineVertex
 10
37.7148
 20
19.2493
 30
0.0
 70
    32
  0
SEQEND
  5
452
100
AcDbEntity
  8
LAYER1
 62
   250
  0
POLYLINE
  5
453
100
AcDbEntity
  8
LAYER1
  6
CONTINUOUS
 62
   250
100
AcDb3dPolyline
 66
     1
 10
0.0
 20
0.0
 30
0.0
 70
     8
  0
VERTEX
  5
454
100
AcDbEntity
  8
LAYER1
  6
CONTINUOUS
 62
   250
100
AcDbVertex
100
AcDb3dPolylineVertex
 10
37.5961
 20
20.0772
 30
0.0
 70
    32
  0
VERTEX
  5
455
100
AcDbEntity
  8
LAYER1
  6
CONTINUOUS
 62
   250
100
AcDbVertex
100
AcDb3dPolylineVertex
 10
37.6941
 20
20.0945
 30
0.0
 70
    32
  0
SEQEND
  5
456
100
AcDbEntity
  8
LAYER1
 62
   250
  0
ARC
  5
457
100
AcDbEntity
  8
LAYER1
  6
CONTINUOUS
 62
   250
100
AcDbCircle
 10
37.6898
 20
20.1191
 30
0.0
 40
0.025
100
AcDbArc
 50
280.0
 51
0.0
  0
POLYLINE
  5
458
100
AcDbEntity
  8
LAYER1
  6
CONTINUOUS
 62
   250
100
AcDb3dPolyline
 66
     1
 10
0.0
 20
0.0
 30
0.0
 70
     8
  0
VERTEX
  5
459
100
AcDbEntity
  8
LAYER1
  6
CONTINUOUS
 62
   250
100
AcDbVertex
100
AcDb3dPolylineVertex
 10
37.7148
 20
20.1191
 30
0.0
 70
    32
  0
VERTEX
  5
45A
100
AcDbEntity
  8
LAYER1
  6
CONTINUOUS
 62
   250
100
AcDbVertex
100
AcDb3dPolylineVertex
 10
37.7148
 20
20.2493
 30
0.0
 70
    32
  0
SEQEND
  5
45B
100
AcDbEntity
  8
LAYER1
 62
   250
  0
ARC
  5
45C
100
AcDbEntity
  8
LAYER1
  6
CONTINUOUS
 62
   250
100
AcDbCircle
 10
37.7798
 20
21.9993
 30
0.0
 40
0.065
100
AcDbArc
 50
0.0
 51
180.0
  0
POLYLINE
  5
45D
100
AcDbEntity
  8
LAYER1
  6
CONTINUOUS
 62
   250
100
AcDb3dPolyline
 66
     1
 10
0.0
 20
0.0
 30
0.0
 70
     8
  0
VERTEX
  5
45E
100
AcDbEntity
  8
LAYER1
  6
CONTINUOUS
 62
   250
100
AcDbVertex
100
AcDb3dPolylineVertex
 10
37.8448
 20
21.9993
 30
0.0
 70
    32
  0
VERTEX
  5
45F
100
AcDbEntity
  8
LAYER1
  6
CONTINUOUS
 62
   250
100
AcDbVertex
100
AcDb3dPolylineVertex
 10
37.8448
 20
21.8711
 30
0.0
 70
    32
  0
SEQEND
  5
460
100
AcDbEntity
  8
LAYER1
 62
   250
  0
ARC
  5
461
100
AcDbEntity
  8
LAYER1
  6
CONTINUOUS
 62
   250
100
AcDbCircle
 10
37.7798
 20
20.9993
 30
0.0
 40
0.065
100
AcDbArc
 50
180.0
 51
0.0
  0
POLYLINE
  5
462
100
AcDbEntity
  8
LAYER1
  6
CONTINUOUS
 62
   250
100
AcDb3dPolyline
 66
     1
 10
0.0
 20
0.0
 30
0.0
 70
     8
  0
VERTEX
  5
463
100
AcDbEntity
  8
LAYER1
  6
CONTINUOUS
 62
   250
100
AcDbVertex
100
AcDb3dPolylineVertex
 10
37.8448
 20
20.9993
 30
0.0
 70
    32
  0
VERTEX
  5
464
100
AcDbEntity
  8
LAYER1
  6
CONTINUOUS
 62
   250
100
AcDbVertex
100
AcDb3dPolylineVertex
 10
37.8448
 20
21.1275
 30
0.0
 70
    32
  0
SEQEND
  5
465
100
AcDbEntity
  8
LAYER1
 62
   250
  0
POLYLINE
  5
466
100
AcDbEntity
  8
LAYER1
  6
CONTINUOUS
 62
   250
100
AcDb3dPolyline
 66
     1
 10
0.0
 20
0.0
 30
0.0
 70
     8
  0
VERTEX
  5
467
100
AcDbEntity
  8
LAYER1
  6
CONTINUOUS
 62
   250
100
AcDbVertex
100
AcDb3dPolylineVertex
 10
38.0048
 20
21.4993
 30
0.0
 70
    32
  0
VERTEX
  5
468
100
AcDbEntity
  8
LAYER1
  6
CONTINUOUS
 62
   250
100
AcDbVertex
100
AcDb3dPolylineVertex
 10
38.0048
 20
21.8397
 30
0.0
 70
    32
  0
SEQEND
  5
469
100
AcDbEntity
  8
LAYER1
 62
   250
  0
ARC
  5
46A
100
AcDbEntity
  8
LAYER1
  6
CONTINUOUS
 62
   250
100
AcDbCircle
 10
37.9548
 20
21.8397
 30
0.0
 40
0.05
100
AcDbArc
 50
0.0
 51
100.0
  0
POLYLINE
  5
46B
100
AcDbEntity
  8
LAYER1
  6
CONTINUOUS
 62
   250
100
AcDb3dPolyline
 66
     1
 10
0.0
 20
0.0
 30
0.0
 70
     8
  0
VERTEX
  5
46C
100
AcDbEntity
  8
LAYER1
  6
CONTINUOUS
 62
   250
100
AcDbVertex
100
AcDb3dPolylineVertex
 10
37.9461
 20
21.8889
 30
0.0
 70
    32
  0
VERTEX
  5
46D
100
AcDbEntity
  8
LAYER1
  6
CONTINUOUS
 62
   250
100
AcDbVertex
100
AcDb3dPolylineVertex
 10
37.8448
 20
21.8711
 30
0.0
 70
    32
  0
SEQEND
  5
46E
100
AcDbEntity
  8
LAYER1
 62
   250
  0
POLYLINE
  5
46F
100
AcDbEntity
  8
LAYER1
  6
CONTINUOUS
 62
   250
100
AcDb3dPolyline
 66
     1
 10
0.0
 20
0.0
 30
0.0
 70
     8
  0
VERTEX
  5
470
100
AcDbEntity
  8
LAYER1
  6
CONTINUOUS
 62
   250
100
AcDbVertex
100
AcDb3dPolylineVertex
 10
38.0048
 20
21.4993
 30
0.0
 70
    32
  0
VERTEX
  5
471
100
AcDbEntity
  8
LAYER1
  6
CONTINUOUS
 62
   250
100
AcDbVertex
100
AcDb3dPolylineVertex
 10
38.0048
 20
21.1589
 30
0.0
 70
    32
  0
SEQEND
  5
472
100
AcDbEntity
  8
LAYER1
 62
   250
  0
ARC
  5
473
100
AcDbEntity
  8
LAYER1
  6
CONTINUOUS
 62
   250
100
AcDbCircle
 10
37.9548
 20
21.1589
 30
0.0
 40
0.05
100
AcDbArc
 50
260.0
 51
0.0
  0
POLYLINE
  5
474
100
AcDbEntity
  8
LAYER1
  6
CONTINUOUS
 62
   250
100
AcDb3dPolyline
 66
     1
 10
0.0
 20
0.0
 30
0.0
 70
     8
  0
VERTEX
  5
475
100
AcDbEntity
  8
LAYER1
  6
CONTINUOUS
 62
   250
100
AcDbVertex
100
AcDb3dPolylineVertex
 10
37.9461
 20
21.1096
 30
0.0
 70
    32
  0
VERTEX
  5
476
100
AcDbEntity
  8
LAYER1
  6
CONTINUOUS
 62
   250
100
AcDbVertex
100
AcDb3dPolylineVertex
 10
37.8448
 20
21.1275
 30
0.0
 70
    32
  0
SEQEND
  5
477
100
AcDbEntity
  8
LAYER1
 62
   250
  0
ARC
  5
478
100
AcDbEntity
  8
LAYER1
  6
CONTINUOUS
 62
   250
100
AcDbCircle
 10
37.6048
 20
21.2206
 30
0.0
 40
0.05
100
AcDbArc
 50
180.0
 51
260.0
  0
POLYLINE
  5
479
100
AcDbEntity
  8
LAYER1
  6
CONTINUOUS
 62
   250
100
AcDb3dPolyline
 66
     1
 10
0.0
 20
0.0
 30
0.0
 70
     8
  0
VERTEX
  5
47A
100
AcDbEntity
  8
LAYER1
  6
CONTINUOUS
 62
   250
100
AcDbVertex
100
AcDb3dPolylineVertex
 10
37.5548
 20
21.2206
 30
0.0
 70
    32
  0
VERTEX
  5
47B
100
AcDbEntity
  8
LAYER1
  6
CONTINUOUS
 62
   250
100
AcDbVertex
100
AcDb3dPolylineVertex
 10
37.5548
 20
21.778
 30
0.0
 70
    32
  0
SEQEND
  5
47C
100
AcDbEntity
  8
LAYER1
 62
   250
  0
ARC
  5
47D
100
AcDbEntity
  8
LAYER1
  6
CONTINUOUS
 62
   250
100
AcDbCircle
 10
37.6048
 20
21.778
 30
0.0
 40
0.05
100
AcDbArc
 50
100.0
 51
180.0
  0
POLYLINE
  5
47E
100
AcDbEntity
  8
LAYER1
  6
CONTINUOUS
 62
   250
100
AcDb3dPolyline
 66
     1
 10
0.0
 20
0.0
 30
0.0
 70
     8
  0
VERTEX
  5
47F
100
AcDbEntity
  8
LAYER1
  6
CONTINUOUS
 62
   250
100
AcDbVertex
100
AcDb3dPolylineVertex
 10
37.5961
 20
21.8272
 30
0.0
 70
    32
  0
VERTEX
  5
480
100
AcDbEntity
  8
LAYER1
  6
CONTINUOUS
 62
   250
100
AcDbVertex
100
AcDb3dPolylineVertex
 10
37.6941
 20
21.8445
 30
0.0
 70
    32
  0
SEQEND
  5
481
100
AcDbEntity
  8
LAYER1
 62
   250
  0
ARC
  5
482
100
AcDbEntity
  8
LAYER1
  6
CONTINUOUS
 62
   250
100
AcDbCircle
 10
37.6898
 20
21.8691
 30
0.0
 40
0.025
100
AcDbArc
 50
280.0
 51
0.0
  0
POLYLINE
  5
483
100
AcDbEntity
  8
LAYER1
  6
CONTINUOUS
 62
   250
100
AcDb3dPolyline
 66
     1
 10
0.0
 20
0.0
 30
0.0
 70
     8
  0
VERTEX
  5
484
100
AcDbEntity
  8
LAYER1
  6
CONTINUOUS
 62
   250
100
AcDbVertex
100
AcDb3dPolylineVertex
 10
37.7148
 20
21.8691
 30
0.0
 70
    32
  0
VERTEX
  5
485
100
AcDbEntity
  8
LAYER1
  6
CONTINUOUS
 62
   250
100
AcDbVertex
100
AcDb3dPolylineVertex
 10
37.7148
 20
21.9993
 30
0.0
 70
    32
  0
SEQEND
  5
486
100
AcDbEntity
  8
LAYER1
 62
   250
  0
POLYLINE
  5
487
100
AcDbEntity
  8
LAYER1
  6
CONTINUOUS
 62
   250
100
AcDb3dPolyline
 66
     1
 10
0.0
 20
0.0
 30
0.0
 70
     8
  0
VERTEX
  5
488
100
AcDbEntity
  8
LAYER1
  6
CONTINUOUS
 62
   250
100
AcDbVertex
100
AcDb3dPolylineVertex
 10
37.5961
 20
21.1713
 30
0.0
 70
    32
  0
VERTEX
  5
489
100
AcDbEntity
  8
LAYER1
  6
CONTINUOUS
 62
   250
100
AcDbVertex
100
AcDb3dPolylineVertex
 10
37.6941
 20
21.1541
 30
0.0
 70
    32
  0
SEQEND
  5
48A
100
AcDbEntity
  8
LAYER1
 62
   250
  0
ARC
  5
48B
100
AcDbEntity
  8
LAYER1
  6
CONTINUOUS
 62
   250
100
AcDbCircle
 10
37.6898
 20
21.1294
 30
0.0
 40
0.025
100
AcDbArc
 50
0.0
 51
80.0
  0
POLYLINE
  5
48C
100
AcDbEntity
  8
LAYER1
  6
CONTINUOUS
 62
   250
100
AcDb3dPolyline
 66
     1
 10
0.0
 20
0.0
 30
0.0
 70
     8
  0
VERTEX
  5
48D
100
AcDbEntity
  8
LAYER1
  6
CONTINUOUS
 62
   250
100
AcDbVertex
100
AcDb3dPolylineVertex
 10
37.7148
 20
21.1294
 30
0.0
 70
    32
  0
VERTEX
  5
48E
100
AcDbEntity
  8
LAYER1
  6
CONTINUOUS
 62
   250
100
AcDbVertex
100
AcDb3dPolylineVertex
 10
37.7148
 20
20.9993
 30
0.0
 70
    32
  0
SEQEND
  5
48F
100
AcDbEntity
  8
LAYER1
 62
   250
  0
POLYLINE
  5
490
100
AcDbEntity
  8
LAYER1
  6
CONTINUOUS
 62
   250
100
AcDb3dPolyline
 66
     1
 10
0.0
 20
0.0
 30
0.0
 70
     8
  0
VERTEX
  5
491
100
AcDbEntity
  8
LAYER1
  6
CONTINUOUS
 62
   250
100
AcDbVertex
100
AcDb3dPolylineVertex
 10
33.5498
 20
19.2493
 30
0.0
 70
    32
  0
VERTEX
  5
492
100
AcDbEntity
  8
LAYER1
  6
CONTINUOUS
 62
   250
100
AcDbVertex
100
AcDb3dPolylineVertex
 10
33.5498
 20
19.1843
 30
0.0
 70
    32
  0
SEQEND
  5
493
100
AcDbEntity
  8
LAYER1
 62
   250
  0
POLYLINE
  5
494
100
AcDbEntity
  8
LAYER1
  6
CONTINUOUS
 62
   250
100
AcDb3dPolyline
 66
     1
 10
0.0
 20
0.0
 30
0.0
 70
     8
  0
VERTEX
  5
495
100
AcDbEntity
  8
LAYER1
  6
CONTINUOUS
 62
   250
100
AcDbVertex
100
AcDb3dPolylineVertex
 10
36.6098
 20
18.4743
 30
0.0
 70
    32
  0
VERTEX
  5
496
100
AcDbEntity
  8
LAYER1
  6
CONTINUOUS
 62
   250
100
AcDbVertex
100
AcDb3dPolylineVertex
 10
36.6748
 20
18.4743
 30
0.0
 70
    32
  0
SEQEND
  5
497
100
AcDbEntity
  8
LAYER1
 62
   250
  0
POLYLINE
  5
498
100
AcDbEntity
  8
LAYER1
  6
CONTINUOUS
 62
   250
100
AcDb3dPolyline
 66
     1
 10
0.0
 20
0.0
 30
0.0
 70
     8
  0
VERTEX
  5
499
100
AcDbEntity
  8
LAYER1
  6
CONTINUOUS
 62
   250
100
AcDbVertex
100
AcDb3dPolylineVertex
 10
33.3248
 20
20.0897
 30
0.0
 70
    32
  0
VERTEX
  5
49A
100
AcDbEntity
  8
LAYER1
  6
CONTINUOUS
 62
   250
100
AcDbVertex
100
AcDb3dPolylineVertex
 10
33.3248
 20
19.4089
 30
0.0
 70
    32
  0
SEQEND
  5
49B
100
AcDbEntity
  8
LAYER1
 62
   250
  0
TEXT
  5
4A3
100
AcDbEntity
  8
LAYER4
 62
   250
100
AcDbText
 10
27.9264
 20
16.4263
 30
0.0
 40
0.15
  1
1000 PCS 1/16 ALUM. 5.625 X 5.405
 41
0.80046
 72
     5
 11
31.4084
 21
16.4263
 31
0.0
100
AcDbText
  0
TEXT
  5
4A5
100
AcDbEntity
  8
LAYER4
 62
   250
100
AcDbText
 10
37.555499
 20
15.491992
 30
0.0
 40
0.12
  1
CT104 End cap with DB9 & DB25
100
AcDbText
  0
TEXT
  5
4A6
100
AcDbEntity
  8
LAYER4
 62
   250
100
AcDbText
 10
37.5552
 20
14.6732
 30
0.0
 40
0.15
  1
CT104-EC01
100
AcDbText
  0
POLYLINE
  5
4A7
100
AcDbEntity
  8
LAYER3
  6
PHANTOM
 62
   250
100
AcDb3dPolyline
 66
     1
 10
0.0
 20
0.0
 30
0.0
 70
     8
  0
VERTEX
  5
4A8
100
AcDbEntity
  8
LAYER3
  6
PHANTOM
 62
   250
100
AcDbVertex
100
AcDb3dPolylineVertex
 10
32.5131
 20
22.5662
 30
0.0
 70
    32
  0
VERTEX
  5
4A9
100
AcDbEntity
  8
LAYER3
  6
PHANTOM
 62
   250
100
AcDbVertex
100
AcDb3dPolylineVertex
 10
32.9386
 20
21.9021
 30
0.0
 70
    32
  0
SEQEND
  5
4AA
100
AcDbEntity
  8
LAYER3
 62
   250
  0
POLYLINE
  5
4AB
100
AcDbEntity
  8
LAYER3
  6
CONTINUOUS
 62
   250
100
AcDb3dPolyline
 66
     1
 10
0.0
 20
0.0
 30
0.0
 70
     8
  0
VERTEX
  5
4AC
100
AcDbEntity
  8
LAYER3
  6
CONTINUOUS
 62
   250
100
AcDbVertex
100
AcDb3dPolylineVertex
 10
33.0398
 20
21.7443
 30
0.0
 70
    32
  0
VERTEX
  5
4AD
100
AcDbEntity
  8
LAYER3
  6
CONTINUOUS
 62
   250
100
AcDbVertex
100
AcDb3dPolylineVertex
 10
32.9386
 20
21.9021
 30
0.0
 70
    32
  0
SEQEND
  5
4AE
100
AcDbEntity
  8
LAYER3
 62
   250
  0
POLYLINE
  5
4AF
100
AcDbEntity
  8
LAYER3
  6
CONTINUOUS
 62
   250
100
AcDb3dPolyline
 66
     1
 10
0.0
 20
0.0
 30
0.0
 70
     8
  0
VERTEX
  5
4B0
100
AcDbEntity
  8
LAYER3
  6
CONTINUOUS
 62
   250
100
AcDbVertex
100
AcDb3dPolylineVertex
 10
32.5131
 20
22.5662
 30
0.0
 70
    32
  0
VERTEX
  5
4B1
100
AcDbEntity
  8
LAYER3
  6
CONTINUOUS
 62
   250
100
AcDbVertex
100
AcDb3dPolylineVertex
 10
31.1365
 20
22.5662
 30
0.0
 70
    32
  0
SEQEND
  5
4B2
100
AcDbEntity
  8
LAYER3
 62
   250
  0
TEXT
  5
4B3
100
AcDbEntity
  8
LAYER3
 62
   250
100
AcDbText
 10
30.1281
 20
22.4662
 30
0.0
 40
0.2
  1
R0.188
 41
1.009333
 72
     5
 11
31.0365
 21
22.4662
 31
0.0
100
AcDbText
  0
POLYLINE
  5
4B4
100
AcDbEntity
  8
LAYER3
  6
CONTINUOUS
 62
   250
100
AcDb3dPolyline
 66
     1
 10
0.0
 20
0.0
 30
0.0
 70
     8
  0
VERTEX
  5
4B5
100
AcDbEntity
  8
LAYER3
  6
CONTINUOUS
 62
   250
100
AcDbVertex
100
AcDb3dPolylineVertex
 10
41.2699
 20
22.9343
 30
0.0
 70
    32
  0
VERTEX
  5
4B6
100
AcDbEntity
  8
LAYER3
  6
CONTINUOUS
 62
   250
100
AcDbVertex
100
AcDb3dPolylineVertex
 10
41.2699
 20
23.6963
 30
0.0
 70
    32
  0
SEQEND
  5
4B7
100
AcDbEntity
  8
LAYER3
 62
   250
  0
POLYLINE
  5
4B8
100
AcDbEntity
  8
LAYER3
  6
CONTINUOUS
 62
   250
100
AcDb3dPolyline
 66
     1
 10
0.0
 20
0.0
 30
0.0
 70
     8
  0
VERTEX
  5
4B9
100
AcDbEntity
  8
LAYER3
  6
CONTINUOUS
 62
   250
100
AcDbVertex
100
AcDb3dPolylineVertex
 10
43.2899
 20
22.9343
 30
0.0
 70
    32
  0
VERTEX
  5
4BA
100
AcDbEntity
  8
LAYER3
  6
CONTINUOUS
 62
   250
100
AcDbVertex
100
AcDb3dPolylineVertex
 10
43.2899
 20
23.6963
 30
0.0
 70
    32
  0
SEQEND
  5
4BB
100
AcDbEntity
  8
LAYER3
 62
   250
  0
POLYLINE
  5
4BC
100
AcDbEntity
  8
LAYER3
  6
PHANTOM
 62
   250
100
AcDb3dPolyline
 66
     1
 10
0.0
 20
0.0
 30
0.0
 70
     8
  0
VERTEX
  5
4BD
100
AcDbEntity
  8
LAYER3
  6
PHANTOM
 62
   250
100
AcDbVertex
100
AcDb3dPolylineVertex
 10
41.7303
 20
23.5963
 30
0.0
 70
    32
  0
VERTEX
  5
4BE
100
AcDbEntity
  8
LAYER3
  6
PHANTOM
 62
   250
100
AcDbVertex
100
AcDb3dPolylineVertex
 10
41.2699
 20
23.5963
 30
0.0
 70
    32
  0
SEQEND
  5
4BF
100
AcDbEntity
  8
LAYER3
 62
   250
  0
POLYLINE
  5
4C0
100
AcDbEntity
  8
LAYER3
  6
PHANTOM
 62
   250
100
AcDb3dPolyline
 66
     1
 10
0.0
 20
0.0
 30
0.0
 70
     8
  0
VERTEX
  5
4C1
100
AcDbEntity
  8
LAYER3
  6
PHANTOM
 62
   250
100
AcDbVertex
100
AcDb3dPolylineVertex
 10
42.8294
 20
23.5963
 30
0.0
 70
    32
  0
VERTEX
  5
4C2
100
AcDbEntity
  8
LAYER3
  6
PHANTOM
 62
   250
100
AcDbVertex
100
AcDb3dPolylineVertex
 10
43.2899
 20
23.5963
 30
0.0
 70
    32
  0
SEQEND
  5
4C3
100
AcDbEntity
  8
LAYER3
 62
   250
  0
TEXT
  5
4C4
100
AcDbEntity
  8
LAYER3
 62
   250
100
AcDbText
 10
41.925
 20
23.4963
 30
0.0
 40
0.2
  1
2.020
 41
0.967773
 72
     5
 11
42.6347
 21
23.4963
 31
0.0
100
AcDbText
  0
POLYLINE
  5
4C5
100
AcDbEntity
  8
LAYER3
  6
CONTINUOUS
 62
   250
100
AcDb3dPolyline
 66
     1
 10
0.0
 20
0.0
 30
0.0
 70
     8
  0
VERTEX
  5
4C6
100
AcDbEntity
  8
LAYER3
  6
CONTINUOUS
 62
   250
100
AcDbVertex
100
AcDb3dPolylineVertex
 10
41.3762
 20
22.5093
 30
0.0
 70
    32
  0
VERTEX
  5
4C7
100
AcDbEntity
  8
LAYER3
  6
CONTINUOUS
 62
   250
100
AcDbVertex
100
AcDb3dPolylineVertex
 10
40.9007
 20
22.5093
 30
0.0
 70
    32
  0
SEQEND
  5
4C8
100
AcDbEntity
  8
LAYER3
 62
   250
  0
POLYLINE
  5
4C9
100
AcDbEntity
  8
LAYER3
  6
CONTINUOUS
 62
   250
100
AcDb3dPolyline
 66
     1
 10
0.0
 20
0.0
 30
0.0
 70
     8
  0
VERTEX
  5
4CA
100
AcDbEntity
  8
LAYER3
  6
CONTINUOUS
 62
   250
100
AcDbVertex
100
AcDb3dPolylineVertex
 10
41.3144
 20
22.9593
 30
0.0
 70
    32
  0
VERTEX
  5
4CB
100
AcDbEntity
  8
LAYER3
  6
CONTINUOUS
 62
   250
100
AcDbVertex
100
AcDb3dPolylineVertex
 10
40.9007
 20
22.9593
 30
0.0
 70
    32
  0
SEQEND
  5
4CC
100
AcDbEntity
  8
LAYER3
 62
   250
  0
POLYLINE
  5
4CD
100
AcDbEntity
  8
LAYER3
  6
PHANTOM
 62
   250
100
AcDb3dPolyline
 66
     1
 10
0.0
 20
0.0
 30
0.0
 70
     8
  0
VERTEX
  5
4CE
100
AcDbEntity
  8
LAYER3
  6
PHANTOM
 62
   250
100
AcDbVertex
100
AcDb3dPolylineVertex
 10
41.0007
 20
22.5093
 30
0.0
 70
    32
  0
VERTEX
  5
4CF
100
AcDbEntity
  8
LAYER3
  6
PHANTOM
 62
   250
100
AcDbVertex
100
AcDb3dPolylineVertex
 10
41.0007
 20
22.5093
 30
0.0
 70
    32
  0
SEQEND
  5
4D0
100
AcDbEntity
  8
LAYER3
 62
   250
  0
POLYLINE
  5
4D1
100
AcDbEntity
  8
LAYER3
  6
PHANTOM
 62
   250
100
AcDb3dPolyline
 66
     1
 10
0.0
 20
0.0
 30
0.0
 70
     8
  0
VERTEX
  5
4D2
100
AcDbEntity
  8
LAYER3
  6
PHANTOM
 62
   250
100
AcDbVertex
100
AcDb3dPolylineVertex
 10
41.0007
 20
22.9593
 30
0.0
 70
    32
  0
VERTEX
  5
4D3
100
AcDbEntity
  8
LAYER3
  6
PHANTOM
 62
   250
100
AcDbVertex
100
AcDb3dPolylineVertex
 10
41.0007
 20
22.9593
 30
0.0
 70
    32
  0
SEQEND
  5
4D4
100
AcDbEntity
  8
LAYER3
 62
   250
  0
TEXT
  5
4D5
100
AcDbEntity
  8
LAYER3
 62
   250
100
AcDbText
 10
41.1007
 20
22.3795
 30
0.0
 40
0.2
  1
0.450
 50
90.0
 41
0.967636
 72
     5
 11
41.1007
 21
23.0891
 31
0.0
100
AcDbText
  0
POLYLINE
  5
4D6
100
AcDbEntity
  8
LAYER3
  6
CONTINUOUS
 62
   250
100
AcDb3dPolyline
 66
     1
 10
0.0
 20
0.0
 30
0.0
 70
     8
  0
VERTEX
  5
4D7
100
AcDbEntity
  8
LAYER3
  6
CONTINUOUS
 62
   250
100
AcDbVertex
100
AcDb3dPolylineVertex
 10
41.4691
 20
21.5402
 30
0.0
 70
    32
  0
VERTEX
  5
4D8
100
AcDbEntity
  8
LAYER3
  6
CONTINUOUS
 62
   250
100
AcDbVertex
100
AcDb3dPolylineVertex
 10
41.4691
 20
21.971
 30
0.0
 70
    32
  0
SEQEND
  5
4D9
100
AcDbEntity
  8
LAYER3
 62
   250
  0
POLYLINE
  5
4DA
100
AcDbEntity
  8
LAYER3
  6
CONTINUOUS
 62
   250
100
AcDb3dPolyline
 66
     1
 10
0.0
 20
0.0
 30
0.0
 70
     8
  0
VERTEX
  5
4DB
100
AcDbEntity
  8
LAYER3
  6
CONTINUOUS
 62
   250
100
AcDbVertex
100
AcDb3dPolylineVertex
 10
42.5991
 20
21.5402
 30
0.0
 70
    32
  0
VERTEX
  5
4DC
100
AcDbEntity
  8
LAYER3
  6
CONTINUOUS
 62
   250
100
AcDbVertex
100
AcDb3dPolylineVertex
 10
42.5991
 20
21.971
 30
0.0
 70
    32
  0
SEQEND
  5
4DD
100
AcDbEntity
  8
LAYER3
 62
   250
  0
POLYLINE
  5
4DE
100
AcDbEntity
  8
LAYER3
  6
PHANTOM
 62
   250
100
AcDb3dPolyline
 66
     1
 10
0.0
 20
0.0
 30
0.0
 70
     8
  0
VERTEX
  5
4DF
100
AcDbEntity
  8
LAYER3
  6
PHANTOM
 62
   250
100
AcDbVertex
100
AcDb3dPolylineVertex
 10
41.4825
 20
21.871
 30
0.0
 70
    32
  0
VERTEX
  5
4E0
100
AcDbEntity
  8
LAYER3
  6
PHANTOM
 62
   250
100
AcDbVertex
100
AcDb3dPolylineVertex
 10
41.4691
 20
21.871
 30
0.0
 70
    32
  0
SEQEND
  5
4E1
100
AcDbEntity
  8
LAYER3
 62
   250
  0
POLYLINE
  5
4E2
100
AcDbEntity
  8
LAYER3
  6
PHANTOM
 62
   250
100
AcDb3dPolyline
 66
     1
 10
0.0
 20
0.0
 30
0.0
 70
     8
  0
VERTEX
  5
4E3
100
AcDbEntity
  8
LAYER3
  6
PHANTOM
 62
   250
100
AcDbVertex
100
AcDb3dPolylineVertex
 10
42.5856
 20
21.871
 30
0.0
 70
    32
  0
VERTEX
  5
4E4
100
AcDbEntity
  8
LAYER3
  6
PHANTOM
 62
   250
100
AcDbVertex
100
AcDb3dPolylineVertex
 10
42.5991
 20
21.871
 30
0.0
 70
    32
  0
SEQEND
  5
4E5
100
AcDbEntity
  8
LAYER3
 62
   250
  0
TEXT
  5
4E6
100
AcDbEntity
  8
LAYER3
 62
   250
100
AcDbText
 10
41.6792
 20
21.771
 30
0.0
 40
0.2
  1
1.130
 41
1.120579
 72
     5
 11
42.3889
 21
21.771
 31
0.0
100
AcDbText
  0
POLYLINE
  5
4E7
100
AcDbEntity
  8
LAYER3
  6
CONTINUOUS
 62
   250
100
AcDb3dPolyline
 66
     1
 10
0.0
 20
0.0
 30
0.0
 70
     8
  0
VERTEX
  5
4E8
100
AcDbEntity
  8
LAYER3
  6
CONTINUOUS
 62
   250
100
AcDbVertex
100
AcDb3dPolylineVertex
 10
41.5554
 20
21.1152
 30
0.0
 70
    32
  0
VERTEX
  5
4E9
100
AcDbEntity
  8
LAYER3
  6
CONTINUOUS
 62
   250
100
AcDbVertex
100
AcDb3dPolylineVertex
 10
41.0913
 20
21.1152
 30
0.0
 70
    32
  0
SEQEND
  5
4EA
100
AcDbEntity
  8
LAYER3
 62
   250
  0
POLYLINE
  5
4EB
100
AcDbEntity
  8
LAYER3
  6
CONTINUOUS
 62
   250
100
AcDb3dPolyline
 66
     1
 10
0.0
 20
0.0
 30
0.0
 70
     8
  0
VERTEX
  5
4EC
100
AcDbEntity
  8
LAYER3
  6
CONTINUOUS
 62
   250
100
AcDbVertex
100
AcDb3dPolylineVertex
 10
41.4936
 20
21.5652
 30
0.0
 70
    32
  0
VERTEX
  5
4ED
100
AcDbEntity
  8
LAYER3
  6
CONTINUOUS
 62
   250
100
AcDbVertex
100
AcDb3dPolylineVertex
 10
41.0913
 20
21.5652
 30
0.0
 70
    32
  0
SEQEND
  5
4EE
100
AcDbEntity
  8
LAYER3
 62
   250
  0
POLYLINE
  5
4EF
100
AcDbEntity
  8
LAYER3
  6
PHANTOM
 62
   250
100
AcDb3dPolyline
 66
     1
 10
0.0
 20
0.0
 30
0.0
 70
     8
  0
VERTEX
  5
4F0
100
AcDbEntity
  8
LAYER3
  6
PHANTOM
 62
   250
100
AcDbVertex
100
AcDb3dPolylineVertex
 10
41.1913
 20
21.1152
 30
0.0
 70
    32
  0
VERTEX
  5
4F1
100
AcDbEntity
  8
LAYER3
  6
PHANTOM
 62
   250
100
AcDbVertex
100
AcDb3dPolylineVertex
 10
41.1913
 20
21.1152
 30
0.0
 70
    32
  0
SEQEND
  5
4F2
100
AcDbEntity
  8
LAYER3
 62
   250
  0
POLYLINE
  5
4F3
100
AcDbEntity
  8
LAYER3
  6
PHANTOM
 62
   250
100
AcDb3dPolyline
 66
     1
 10
0.0
 20
0.0
 30
0.0
 70
     8
  0
VERTEX
  5
4F4
100
AcDbEntity
  8
LAYER3
  6
PHANTOM
 62
   250
100
AcDbVertex
100
AcDb3dPolylineVertex
 10
41.1913
 20
21.5652
 30
0.0
 70
    32
  0
VERTEX
  5
4F5
100
AcDbEntity
  8
LAYER3
  6
PHANTOM
 62
   250
100
AcDbVertex
100
AcDb3dPolylineVertex
 10
41.1913
 20
21.5652
 30
0.0
 70
    32
  0
SEQEND
  5
4F6
100
AcDbEntity
  8
LAYER3
 62
   250
  0
TEXT
  5
4F7
100
AcDbEntity
  8
LAYER3
 62
   250
100
AcDbText
 10
41.2913
 20
20.9853
 30
0.0
 40
0.2
  1
0.450
 50
90.0
 41
0.967773
 72
     5
 11
41.2913
 21
21.695
 31
0.0
100
AcDbText
  0
POLYLINE
  5
4F8
100
AcDbEntity
  8
LAYER3
  6
CONTINUOUS
 62
   250
100
AcDb3dPolyline
 66
     1
 10
0.0
 20
0.0
 30
0.0
 70
     8
  0
VERTEX
  5
4F9
100
AcDbEntity
  8
LAYER3
  6
CONTINUOUS
 62
   250
100
AcDbVertex
100
AcDb3dPolylineVertex
 10
33.5498
 20
18.9843
 30
0.0
 70
    32
  0
VERTEX
  5
4FA
100
AcDbEntity
  8
LAYER3
  6
CONTINUOUS
 62
   250
100
AcDbVertex
100
AcDb3dPolylineVertex
 10
33.5498
 20
17.2211
 30
0.0
 70
    32
  0
SEQEND
  5
4FB
100
AcDbEntity
  8
LAYER3
 62
   250
  0
POLYLINE
  5
4FC
100
AcDbEntity
  8
LAYER3
  6
CONTINUOUS
 62
   250
100
AcDb3dPolyline
 66
     1
 10
0.0
 20
0.0
 30
0.0
 70
     8
  0
VERTEX
  5
4FD
100
AcDbEntity
  8
LAYER3
  6
CONTINUOUS
 62
   250
100
AcDbVertex
100
AcDb3dPolylineVertex
 10
35.6648
 20
20.4243
 30
0.0
 70
    32
  0
VERTEX
  5
4FE
100
AcDbEntity
  8
LAYER3
  6
CONTINUOUS
 62
   250
100
AcDbVertex
100
AcDb3dPolylineVertex
 10
35.6648
 20
17.2211
 30
0.0
 70
    32
  0
SEQEND
  5
4FF
100
AcDbEntity
  8
LAYER3
 62
   250
  0
POLYLINE
  5
500
100
AcDbEntity
  8
LAYER3
  6
PHANTOM
 62
   250
100
AcDb3dPolyline
 66
     1
 10
0.0
 20
0.0
 30
0.0
 70
     8
  0
VERTEX
  5
501
100
AcDbEntity
  8
LAYER3
  6
PHANTOM
 62
   250
100
AcDbVertex
100
AcDb3dPolylineVertex
 10
34.0495
 20
17.3211
 30
0.0
 70
    32
  0
VERTEX
  5
502
100
AcDbEntity
  8
LAYER3
  6
PHANTOM
 62
   250
100
AcDbVertex
100
AcDb3dPolylineVertex
 10
33.5498
 20
17.3211
 30
0.0
 70
    32
  0
SEQEND
  5
503
100
AcDbEntity
  8
LAYER3
 62
   250
  0
POLYLINE
  5
504
100
AcDbEntity
  8
LAYER3
  6
PHANTOM
 62
   250
100
AcDb3dPolyline
 66
     1
 10
0.0
 20
0.0
 30
0.0
 70
     8
  0
VERTEX
  5
505
100
AcDbEntity
  8
LAYER3
  6
PHANTOM
 62
   250
100
AcDbVertex
100
AcDb3dPolylineVertex
 10
35.1651
 20
17.3211
 30
0.0
 70
    32
  0
VERTEX
  5
506
100
AcDbEntity
  8
LAYER3
  6
PHANTOM
 62
   250
100
AcDbVertex
100
AcDb3dPolylineVertex
 10
35.6648
 20
17.3211
 30
0.0
 70
    32
  0
SEQEND
  5
507
100
AcDbEntity
  8
LAYER3
 62
   250
  0
TEXT
  5
508
100
AcDbEntity
  8
LAYER3
 62
   250
100
AcDbText
 10
34.2525
 20
17.2211
 30
0.0
 40
0.2
  1
2.115
 41
1.0644
 72
     5
 11
34.9621
 21
17.2211
 31
0.0
100
AcDbText
  0
POLYLINE
  5
509
100
AcDbEntity
  8
LAYER3
  6
CONTINUOUS
 62
   250
100
AcDb3dPolyline
 66
     1
 10
0.0
 20
0.0
 30
0.0
 70
     8
  0
VERTEX
  5
50A
100
AcDbEntity
  8
LAYER3
  6
CONTINUOUS
 62
   250
100
AcDbVertex
100
AcDb3dPolylineVertex
 10
33.0948
 20
18.4711
 30
0.0
 70
    32
  0
VERTEX
  5
50B
100
AcDbEntity
  8
LAYER3
  6
CONTINUOUS
 62
   250
100
AcDbVertex
100
AcDb3dPolylineVertex
 10
33.0948
 20
16.8204
 30
0.0
 70
    32
  0
SEQEND
  5
50C
100
AcDbEntity
  8
LAYER3
 62
   250
  0
POLYLINE
  5
50D
100
AcDbEntity
  8
LAYER3
  6
CONTINUOUS
 62
   250
100
AcDb3dPolyline
 66
     1
 10
0.0
 20
0.0
 30
0.0
 70
     8
  0
VERTEX
  5
50E
100
AcDbEntity
  8
LAYER3
  6
CONTINUOUS
 62
   250
100
AcDbVertex
100
AcDb3dPolylineVertex
 10
35.6648
 20
17.0211
 30
0.0
 70
    32
  0
VERTEX
  5
50F
100
AcDbEntity
  8
LAYER3
  6
CONTINUOUS
 62
   250
100
AcDbVertex
100
AcDb3dPolylineVertex
 10
35.6648
 20
16.8204
 30
0.0
 70
    32
  0
SEQEND
  5
510
100
AcDbEntity
  8
LAYER3
 62
   250
  0
POLYLINE
  5
511
100
AcDbEntity
  8
LAYER3
  6
PHANTOM
 62
   250
100
AcDb3dPolyline
 66
     1
 10
0.0
 20
0.0
 30
0.0
 70
     8
  0
VERTEX
  5
512
100
AcDbEntity
  8
LAYER3
  6
PHANTOM
 62
   250
100
AcDbVertex
100
AcDb3dPolylineVertex
 10
33.822
 20
16.9204
 30
0.0
 70
    32
  0
VERTEX
  5
513
100
AcDbEntity
  8
LAYER3
  6
PHANTOM
 62
   250
100
AcDbVertex
100
AcDb3dPolylineVertex
 10
33.0948
 20
16.9204
 30
0.0
 70
    32
  0
SEQEND
  5
514
100
AcDbEntity
  8
LAYER3
 62
   250
  0
POLYLINE
  5
515
100
AcDbEntity
  8
LAYER3
  6
PHANTOM
 62
   250
100
AcDb3dPolyline
 66
     1
 10
0.0
 20
0.0
 30
0.0
 70
     8
  0
VERTEX
  5
516
100
AcDbEntity
  8
LAYER3
  6
PHANTOM
 62
   250
100
AcDbVertex
100
AcDb3dPolylineVertex
 10
34.9376
 20
16.9204
 30
0.0
 70
    32
  0
VERTEX
  5
517
100
AcDbEntity
  8
LAYER3
  6
PHANTOM
 62
   250
100
AcDbVertex
100
AcDb3dPolylineVertex
 10
35.6648
 20
16.9204
 30
0.0
 70
    32
  0
SEQEND
  5
518
100
AcDbEntity
  8
LAYER3
 62
   250
  0
TEXT
  5
519
100
AcDbEntity
  8
LAYER3
 62
   250
100
AcDbText
 10
34.025
 20
16.8204
 30
0.0
 40
0.2
  1
2.570
 41
0.925565
 72
     5
 11
34.7346
 21
16.8204
 31
0.0
100
AcDbText
  0
POLYLINE
  5
51A
100
AcDbEntity
  8
LAYER3
  6
CONTINUOUS
 62
   250
100
AcDb3dPolyline
 66
     1
 10
0.0
 20
0.0
 30
0.0
 70
     8
  0
VERTEX
  5
51B
100
AcDbEntity
  8
LAYER3
  6
CONTINUOUS
 62
   250
100
AcDbVertex
100
AcDb3dPolylineVertex
 10
33.0398
 20
19.3043
 30
0.0
 70
    32
  0
VERTEX
  5
51C
100
AcDbEntity
  8
LAYER3
  6
CONTINUOUS
 62
   250
100
AcDbVertex
100
AcDb3dPolylineVertex
 10
33.0398
 20
16.4197
 30
0.0
 70
    32
  0
SEQEND
  5
51D
100
AcDbEntity
  8
LAYER3
 62
   250
  0
POLYLINE
  5
51E
100
AcDbEntity
  8
LAYER3
  6
CONTINUOUS
 62
   250
100
AcDb3dPolyline
 66
     1
 10
0.0
 20
0.0
 30
0.0
 70
     8
  0
VERTEX
  5
51F
100
AcDbEntity
  8
LAYER3
  6
CONTINUOUS
 62
   250
100
AcDbVertex
100
AcDb3dPolylineVertex
 10
35.6648
 20
16.6204
 30
0.0
 70
    32
  0
VERTEX
  5
520
100
AcDbEntity
  8
LAYER3
  6
CONTINUOUS
 62
   250
100
AcDbVertex
100
AcDb3dPolylineVertex
 10
35.6648
 20
16.4197
 30
0.0
 70
    32
  0
SEQEND
  5
521
100
AcDbEntity
  8
LAYER3
 62
   250
  0
POLYLINE
  5
522
100
AcDbEntity
  8
LAYER3
  6
PHANTOM
 62
   250
100
AcDb3dPolyline
 66
     1
 10
0.0
 20
0.0
 30
0.0
 70
     8
  0
VERTEX
  5
523
100
AcDbEntity
  8
LAYER3
  6
PHANTOM
 62
   250
100
AcDbVertex
100
AcDb3dPolylineVertex
 10
33.7945
 20
16.5197
 30
0.0
 70
    32
  0
VERTEX
  5
524
100
AcDbEntity
  8
LAYER3
  6
PHANTOM
 62
   250
100
AcDbVertex
100
AcDb3dPolylineVertex
 10
33.0398
 20
16.5197
 30
0.0
 70
    32
  0
SEQEND
  5
525
100
AcDbEntity
  8
LAYER3
 62
   250
  0
POLYLINE
  5
526
100
AcDbEntity
  8
LAYER3
  6
PHANTOM
 62
   250
100
AcDb3dPolyline
 66
     1
 10
0.0
 20
0.0
 30
0.0
 70
     8
  0
VERTEX
  5
527
100
AcDbEntity
  8
LAYER3
  6
PHANTOM
 62
   250
100
AcDbVertex
100
AcDb3dPolylineVertex
 10
34.9101
 20
16.5197
 30
0.0
 70
    32
  0
VERTEX
  5
528
100
AcDbEntity
  8
LAYER3
  6
PHANTOM
 62
   250
100
AcDbVertex
100
AcDb3dPolylineVertex
 10
35.6648
 20
16.5197
 30
0.0
 70
    32
  0
SEQEND
  5
529
100
AcDbEntity
  8
LAYER3
 62
   250
  0
TEXT
  5
52A
100
AcDbEntity
  8
LAYER3
 62
   250
100
AcDbText
 10
33.9975
 20
16.4197
 30
0.0
 40
0.2
  1
2.625
 41
0.887
 72
     5
 11
34.7071
 21
16.4197
 31
0.0
100
AcDbText
  0
POLYLINE
  5
52B
100
AcDbEntity
  8
LAYER3
  6
CONTINUOUS
 62
   250
100
AcDb3dPolyline
 66
     1
 10
0.0
 20
0.0
 30
0.0
 70
     8
  0
VERTEX
  5
52C
100
AcDbEntity
  8
LAYER3
  6
CONTINUOUS
 62
   250
100
AcDbVertex
100
AcDb3dPolylineVertex
 10
35.6648
 20
16.6197
 30
0.0
 70
    32
  0
VERTEX
  5
52D
100
AcDbEntity
  8
LAYER3
  6
CONTINUOUS
 62
   250
100
AcDbVertex
100
AcDb3dPolylineVertex
 10
35.6648
 20
17.8505
 30
0.0
 70
    32
  0
SEQEND
  5
52E
100
AcDbEntity
  8
LAYER3
 62
   250
  0
POLYLINE
  5
52F
100
AcDbEntity
  8
LAYER3
  6
CONTINUOUS
 62
   250
100
AcDb3dPolyline
 66
     1
 10
0.0
 20
0.0
 30
0.0
 70
     8
  0
VERTEX
  5
530
100
AcDbEntity
  8
LAYER3
  6
CONTINUOUS
 62
   250
100
AcDbVertex
100
AcDb3dPolylineVertex
 10
36.7773
 20
17.8493
 30
0.0
 70
    32
  0
VERTEX
  5
531
100
AcDbEntity
  8
LAYER3
  6
CONTINUOUS
 62
   250
100
AcDbVertex
100
AcDb3dPolylineVertex
 10
36.7773
 20
17.6505
 30
0.0
 70
    32
  0
SEQEND
  5
532
100
AcDbEntity
  8
LAYER3
 62
   250
  0
POLYLINE
  5
533
100
AcDbEntity
  8
LAYER3
  6
PHANTOM
 62
   250
100
AcDb3dPolyline
 66
     1
 10
0.0
 20
0.0
 30
0.0
 70
     8
  0
VERTEX
  5
534
100
AcDbEntity
  8
LAYER3
  6
PHANTOM
 62
   250
100
AcDbVertex
100
AcDb3dPolylineVertex
 10
35.6648
 20
17.7505
 30
0.0
 70
    32
  0
VERTEX
  5
535
100
AcDbEntity
  8
LAYER3
  6
PHANTOM
 62
   250
100
AcDbVertex
100
AcDb3dPolylineVertex
 10
35.6648
 20
17.7505
 30
0.0
 70
    32
  0
SEQEND
  5
536
100
AcDbEntity
  8
LAYER3
 62
   250
  0
POLYLINE
  5
537
100
AcDbEntity
  8
LAYER3
  6
PHANTOM
 62
   250
100
AcDb3dPolyline
 66
     1
 10
0.0
 20
0.0
 30
0.0
 70
     8
  0
VERTEX
  5
538
100
AcDbEntity
  8
LAYER3
  6
PHANTOM
 62
   250
100
AcDbVertex
100
AcDb3dPolylineVertex
 10
36.7773
 20
17.7505
 30
0.0
 70
    32
  0
VERTEX
  5
539
100
AcDbEntity
  8
LAYER3
  6
PHANTOM
 62
   250
100
AcDbVertex
100
AcDb3dPolylineVertex
 10
36.7773
 20
17.7505
 30
0.0
 70
    32
  0
SEQEND
  5
53A
100
AcDbEntity
  8
LAYER3
 62
   250
  0
TEXT
  5
53B
100
AcDbEntity
  8
LAYER3
 62
   250
100
AcDbText
 10
35.8662
 20
17.6505
 30
0.0
 40
0.2
  1
1.112
 41
1.182833
 72
     5
 11
36.5759
 21
17.6505
 31
0.0
100
AcDbText
  0
POLYLINE
  5
53C
100
AcDbEntity
  8
LAYER3
  6
CONTINUOUS
 62
   250
100
AcDb3dPolyline
 66
     1
 10
0.0
 20
0.0
 30
0.0
 70
     8
  0
VERTEX
  5
53D
100
AcDbEntity
  8
LAYER3
  6
CONTINUOUS
 62
   250
100
AcDbVertex
100
AcDb3dPolylineVertex
 10
37.6303
 20
17.9218
 30
0.0
 70
    32
  0
VERTEX
  5
53E
100
AcDbEntity
  8
LAYER3
  6
CONTINUOUS
 62
   250
100
AcDbVertex
100
AcDb3dPolylineVertex
 10
39.8889
 20
17.9218
 30
0.0
 70
    32
  0
SEQEND
  5
53F
100
AcDbEntity
  8
LAYER3
 62
   250
  0
POLYLINE
  5
540
100
AcDbEntity
  8
LAYER3
  6
CONTINUOUS
 62
   250
100
AcDb3dPolyline
 66
     1
 10
0.0
 20
0.0
 30
0.0
 70
     8
  0
VERTEX
  5
541
100
AcDbEntity
  8
LAYER3
  6
CONTINUOUS
 62
   250
100
AcDbVertex
100
AcDb3dPolylineVertex
 10
35.8648
 20
20.6243
 30
0.0
 70
    32
  0
VERTEX
  5
542
100
AcDbEntity
  8
LAYER3
  6
CONTINUOUS
 62
   250
100
AcDbVertex
100
AcDb3dPolylineVertex
 10
39.8889
 20
20.6243
 30
0.0
 70
    32
  0
SEQEND
  5
543
100
AcDbEntity
  8
LAYER3
 62
   250
  0
POLYLINE
  5
544
100
AcDbEntity
  8
LAYER3
  6
PHANTOM
 62
   250
100
AcDb3dPolyline
 66
     1
 10
0.0
 20
0.0
 30
0.0
 70
     8
  0
VERTEX
  5
545
100
AcDbEntity
  8
LAYER3
  6
PHANTOM
 62
   250
100
AcDbVertex
100
AcDb3dPolylineVertex
 10
39.7889
 20
18.7153
 30
0.0
 70
    32
  0
VERTEX
  5
546
100
AcDbEntity
  8
LAYER3
  6
PHANTOM
 62
   250
100
AcDbVertex
100
AcDb3dPolylineVertex
 10
39.7889
 20
17.9218
 30
0.0
 70
    32
  0
SEQEND
  5
547
100
AcDbEntity
  8
LAYER3
 62
   250
  0
POLYLINE
  5
548
100
AcDbEntity
  8
LAYER3
  6
PHANTOM
 62
   250
100
AcDb3dPolyline
 66
     1
 10
0.0
 20
0.0
 30
0.0
 70
     8
  0
VERTEX
  5
549
100
AcDbEntity
  8
LAYER3
  6
PHANTOM
 62
   250
100
AcDbVertex
100
AcDb3dPolylineVertex
 10
39.7889
 20
19.8308
 30
0.0
 70
    32
  0
VERTEX
  5
54A
100
AcDbEntity
  8
LAYER3
  6
PHANTOM
 62
   250
100
AcDbVertex
100
AcDb3dPolylineVertex
 10
39.7889
 20
20.6243
 30
0.0
 70
    32
  0
SEQEND
  5
54B
100
AcDbEntity
  8
LAYER3
 62
   250
  0
TEXT
  5
54C
100
AcDbEntity
  8
LAYER3
 62
   250
100
AcDbText
 10
39.8889
 20
18.9182
 30
0.0
 40
0.2
  1
2.703
 50
90.0
 41
0.925696
 72
     5
 11
39.8889
 21
19.6279
 31
0.0
100
AcDbText
  0
POLYLINE
  5
54D
100
AcDbEntity
  8
LAYER3
  6
CONTINUOUS
 62
   250
100
AcDb3dPolyline
 66
     1
 10
0.0
 20
0.0
 30
0.0
 70
     8
  0
VERTEX
  5
54E
100
AcDbEntity
  8
LAYER3
  6
CONTINUOUS
 62
   250
100
AcDbVertex
100
AcDb3dPolylineVertex
 10
33.5748
 20
19.7493
 30
0.0
 70
    32
  0
VERTEX
  5
54F
100
AcDbEntity
  8
LAYER3
  6
CONTINUOUS
 62
   250
100
AcDbVertex
100
AcDb3dPolylineVertex
 10
32.2519
 20
19.7493
 30
0.0
 70
    32
  0
SEQEND
  5
550
100
AcDbEntity
  8
LAYER3
 62
   250
  0
POLYLINE
  5
551
100
AcDbEntity
  8
LAYER3
  6
CONTINUOUS
 62
   250
100
AcDb3dPolyline
 66
     1
 10
0.0
 20
0.0
 30
0.0
 70
     8
  0
VERTEX
  5
552
100
AcDbEntity
  8
LAYER3
  6
CONTINUOUS
 62
   250
100
AcDbVertex
100
AcDb3dPolylineVertex
 10
32.3908
 20
20.6243
 30
0.0
 70
    32
  0
VERTEX
  5
553
100
AcDbEntity
  8
LAYER3
  6
CONTINUOUS
 62
   250
100
AcDbVertex
100
AcDb3dPolylineVertex
 10
32.2519
 20
20.6243
 30
0.0
 70
    32
  0
SEQEND
  5
554
100
AcDbEntity
  8
LAYER3
 62
   250
  0
POLYLINE
  5
555
100
AcDbEntity
  8
LAYER3
  6
PHANTOM
 62
   250
100
AcDb3dPolyline
 66
     1
 10
0.0
 20
0.0
 30
0.0
 70
     8
  0
VERTEX
  5
556
100
AcDbEntity
  8
LAYER3
  6
PHANTOM
 62
   250
100
AcDbVertex
100
AcDb3dPolylineVertex
 10
32.3519
 20
19.7493
 30
0.0
 70
    32
  0
VERTEX
  5
557
100
AcDbEntity
  8
LAYER3
  6
PHANTOM
 62
   250
100
AcDbVertex
100
AcDb3dPolylineVertex
 10
32.3519
 20
19.7493
 30
0.0
 70
    32
  0
SEQEND
  5
558
100
AcDbEntity
  8
LAYER3
 62
   250
  0
POLYLINE
  5
559
100
AcDbEntity
  8
LAYER3
  6
PHANTOM
 62
   250
100
AcDb3dPolyline
 66
     1
 10
0.0
 20
0.0
 30
0.0
 70
     8
  0
VERTEX
  5
55A
100
AcDbEntity
  8
LAYER3
  6
PHANTOM
 62
   250
100
AcDbVertex
100
AcDb3dPolylineVertex
 10
32.3519
 20
20.6243
 30
0.0
 70
    32
  0
VERTEX
  5
55B
100
AcDbEntity
  8
LAYER3
  6
PHANTOM
 62
   250
100
AcDbVertex
100
AcDb3dPolylineVertex
 10
32.3519
 20
20.6243
 30
0.0
 70
    32
  0
SEQEND
  5
55C
100
AcDbEntity
  8
LAYER3
 62
   250
  0
TEXT
  5
55D
100
AcDbEntity
  8
LAYER3
 62
   250
100
AcDbText
 10
32.4519
 20
19.8319
 30
0.0
 40
0.2
  1
0.875
 50
90.0
 41
0.925696
 72
     5
 11
32.4519
 21
20.5416
 31
0.0
100
AcDbText
  0
POLYLINE
  5
55E
100
AcDbEntity
  8
LAYER3
  6
CONTINUOUS
 62
   250
100
AcDb3dPolyline
 66
     1
 10
0.0
 20
0.0
 30
0.0
 70
     8
  0
VERTEX
  5
55F
100
AcDbEntity
  8
LAYER3
  6
CONTINUOUS
 62
   250
100
AcDbVertex
100
AcDb3dPolylineVertex
 10
36.8748
 20
18.4743
 30
0.0
 70
    32
  0
VERTEX
  5
560
100
AcDbEntity
  8
LAYER3
  6
CONTINUOUS
 62
   250
100
AcDbVertex
100
AcDb3dPolylineVertex
 10
38.9212
 20
18.4743
 30
0.0
 70
    32
  0
SEQEND
  5
561
100
AcDbEntity
  8
LAYER3
 62
   250
  0
POLYLINE
  5
562
100
AcDbEntity
  8
LAYER3
  6
CONTINUOUS
 62
   250
100
AcDb3dPolyline
 66
     1
 10
0.0
 20
0.0
 30
0.0
 70
     8
  0
VERTEX
  5
563
100
AcDbEntity
  8
LAYER3
  6
CONTINUOUS
 62
   250
100
AcDbVertex
100
AcDb3dPolylineVertex
 10
39.6889
 20
20.6243
 30
0.0
 70
    32
  0
VERTEX
  5
564
100
AcDbEntity
  8
LAYER3
  6
CONTINUOUS
 62
   250
100
AcDbVertex
100
AcDb3dPolylineVertex
 10
38.7212
 20
20.6243
 30
0.0
 70
    32
  0
SEQEND
  5
565
100
AcDbEntity
  8
LAYER3
 62
   250
  0
POLYLINE
  5
566
100
AcDbEntity
  8
LAYER3
  6
PHANTOM
 62
   250
100
AcDb3dPolyline
 66
     1
 10
0.0
 20
0.0
 30
0.0
 70
     8
  0
VERTEX
  5
567
100
AcDbEntity
  8
LAYER3
  6
PHANTOM
 62
   250
100
AcDbVertex
100
AcDb3dPolylineVertex
 10
38.8212
 20
18.9909
 30
0.0
 70
    32
  0
VERTEX
  5
568
100
AcDbEntity
  8
LAYER3
  6
PHANTOM
 62
   250
100
AcDbVertex
100
AcDb3dPolylineVertex
 10
38.8212
 20
18.4743
 30
0.0
 70
    32
  0
SEQEND
  5
569
100
AcDbEntity
  8
LAYER3
 62
   250
  0
POLYLINE
  5
56A
100
AcDbEntity
  8
LAYER3
  6
PHANTOM
 62
   250
100
AcDb3dPolyline
 66
     1
 10
0.0
 20
0.0
 30
0.0
 70
     8
  0
VERTEX
  5
56B
100
AcDbEntity
  8
LAYER3
  6
PHANTOM
 62
   250
100
AcDbVertex
100
AcDb3dPolylineVertex
 10
38.8212
 20
20.1076
 30
0.0
 70
    32
  0
VERTEX
  5
56C
100
AcDbEntity
  8
LAYER3
  6
PHANTOM
 62
   250
100
AcDbVertex
100
AcDb3dPolylineVertex
 10
38.8212
 20
20.6243
 30
0.0
 70
    32
  0
SEQEND
  5
56D
100
AcDbEntity
  8
LAYER3
 62
   250
  0
TEXT
  5
56E
100
AcDbEntity
  8
LAYER3
 62
   250
100
AcDbText
 10
38.9212
 20
19.1944
 30
0.0
 40
0.2
  1
2.150
 50
90.0
 41
1.013857
 72
     5
 11
38.9212
 21
19.9041
 31
0.0
100
AcDbText
  0
POLYLINE
  5
56F
100
AcDbEntity
  8
LAYER3
  6
CONTINUOUS
 62
   250
100
AcDb3dPolyline
 66
     1
 10
0.0
 20
0.0
 30
0.0
 70
     8
  0
VERTEX
  5
570
100
AcDbEntity
  8
LAYER3
  6
CONTINUOUS
 62
   250
100
AcDbVertex
100
AcDb3dPolylineVertex
 10
36.9773
 20
18.0493
 30
0.0
 70
    32
  0
VERTEX
  5
571
100
AcDbEntity
  8
LAYER3
  6
CONTINUOUS
 62
   250
100
AcDbVertex
100
AcDb3dPolylineVertex
 10
39.3798
 20
18.0493
 30
0.0
 70
    32
  0
SEQEND
  5
572
100
AcDbEntity
  8
LAYER3
 62
   250
  0
POLYLINE
  5
573
100
AcDbEntity
  8
LAYER3
  6
CONTINUOUS
 62
   250
100
AcDb3dPolyline
 66
     1
 10
0.0
 20
0.0
 30
0.0
 70
     8
  0
VERTEX
  5
574
100
AcDbEntity
  8
LAYER3
  6
CONTINUOUS
 62
   250
100
AcDbVertex
100
AcDb3dPolylineVertex
 10
39.6889
 20
20.6243
 30
0.0
 70
    32
  0
VERTEX
  5
575
100
AcDbEntity
  8
LAYER3
  6
CONTINUOUS
 62
   250
100
AcDbVertex
100
AcDb3dPolylineVertex
 10
39.1798
 20
20.6243
 30
0.0
 70
    32
  0
SEQEND
  5
576
100
AcDbEntity
  8
LAYER3
 62
   250
  0
POLYLINE
  5
577
100
AcDbEntity
  8
LAYER3
  6
PHANTOM
 62
   250
100
AcDb3dPolyline
 66
     1
 10
0.0
 20
0.0
 30
0.0
 70
     8
  0
VERTEX
  5
578
100
AcDbEntity
  8
LAYER3
  6
PHANTOM
 62
   250
100
AcDbVertex
100
AcDb3dPolylineVertex
 10
39.2798
 20
18.7784
 30
0.0
 70
    32
  0
VERTEX
  5
579
100
AcDbEntity
  8
LAYER3
  6
PHANTOM
 62
   250
100
AcDbVertex
100
AcDb3dPolylineVertex
 10
39.2798
 20
18.0493
 30
0.0
 70
    32
  0
SEQEND
  5
57A
100
AcDbEntity
  8
LAYER3
 62
   250
  0
POLYLINE
  5
57B
100
AcDbEntity
  8
LAYER3
  6
PHANTOM
 62
   250
100
AcDb3dPolyline
 66
     1
 10
0.0
 20
0.0
 30
0.0
 70
     8
  0
VERTEX
  5
57C
100
AcDbEntity
  8
LAYER3
  6
PHANTOM
 62
   250
100
AcDbVertex
100
AcDb3dPolylineVertex
 10
39.2798
 20
19.8951
 30
0.0
 70
    32
  0
VERTEX
  5
57D
100
AcDbEntity
  8
LAYER3
  6
PHANTOM
 62
   250
100
AcDbVertex
100
AcDb3dPolylineVertex
 10
39.2798
 20
20.6243
 30
0.0
 70
    32
  0
SEQEND
  5
57E
100
AcDbEntity
  8
LAYER3
 62
   250
  0
TEXT
  5
57F
100
AcDbEntity
  8
LAYER3
 62
   250
100
AcDbText
 10
39.3798
 20
18.9819
 30
0.0
 40
0.2
  1
2.575
 50
90.0
 41
0.887125
 72
     5
 11
39.3798
 21
19.6916
 31
0.0
100
AcDbText
  0
POLYLINE
  5
580
100
AcDbEntity
  8
LAYER3
  6
PHANTOM
 62
   250
100
AcDb3dPolyline
 66
     1
 10
0.0
 20
0.0
 30
0.0
 70
     8
  0
VERTEX
  5
581
100
AcDbEntity
  8
LAYER3
  6
PHANTOM
 62
   250
100
AcDbVertex
100
AcDb3dPolylineVertex
 10
36.7773
 20
23.1993
 30
0.0
 70
    32
  0
VERTEX
  5
582
100
AcDbEntity
  8
LAYER3
  6
PHANTOM
 62
   250
100
AcDbVertex
100
AcDb3dPolylineVertex
 10
36.7467
 20
23.1195
 30
0.0
 70
    32
  0
SEQEND
  5
583
100
AcDbEntity
  8
LAYER3
 62
   250
  0
POLYLINE
  5
584
100
AcDbEntity
  8
LAYER3
  6
PHANTOM
 62
   250
100
AcDb3dPolyline
 66
     1
 10
0.0
 20
0.0
 30
0.0
 70
     8
  0
VERTEX
  5
585
100
AcDbEntity
  8
LAYER3
  6
PHANTOM
 62
   250
100
AcDbVertex
100
AcDb3dPolylineVertex
 10
36.7773
 20
23.1993
 30
0.0
 70
    32
  0
VERTEX
  5
586
100
AcDbEntity
  8
LAYER3
  6
PHANTOM
 62
   250
100
AcDbVertex
100
AcDb3dPolylineVertex
 10
36.8079
 20
23.2791
 30
0.0
 70
    32
  0
SEQEND
  5
587
100
AcDbEntity
  8
LAYER3
 62
   250
  0
POLYLINE
  5
588
100
AcDbEntity
  8
LAYER3
  6
CONTINUOUS
 62
   250
100
AcDb3dPolyline
 66
     1
 10
0.0
 20
0.0
 30
0.0
 70
     8
  0
VERTEX
  5
589
100
AcDbEntity
  8
LAYER3
  6
CONTINUOUS
 62
   250
100
AcDbVertex
100
AcDb3dPolylineVertex
 10
36.8079
 20
23.2791
 30
0.0
 70
    32
  0
VERTEX
  5
58A
100
AcDbEntity
  8
LAYER3
  6
CONTINUOUS
 62
   250
100
AcDbVertex
100
AcDb3dPolylineVertex
 10
37.0712
 20
23.9656
 30
0.0
 70
    32
  0
VERTEX
  5
58B
100
AcDbEntity
  8
LAYER3
  6
CONTINUOUS
 62
   250
100
AcDbVertex
100
AcDb3dPolylineVertex
 10
37.9592
 20
23.9656
 30
0.0
 70
    32
  0
SEQEND
  5
58C
100
AcDbEntity
  8
LAYER3
 62
   250
  0
TEXT
  5
58D
100
AcDbEntity
  8
LAYER3
 62
   250
100
AcDbText
 10
38.0592
 20
23.8656
 30
0.0
 40
0.2
  1
%%c0.171
 41
1.12416
 72
     5
 11
38.996
 21
23.8656
 31
0.0
100
AcDbText
  0
POLYLINE
  5
58E
100
AcDbEntity
  8
LAYER3
  6
CONTINUOUS
 62
   250
100
AcDb3dPolyline
 66
     1
 10
0.0
 20
0.0
 30
0.0
 70
     8
  0
VERTEX
  5
58F
100
AcDbEntity
  8
LAYER3
  6
CONTINUOUS
 62
   250
100
AcDbVertex
100
AcDb3dPolylineVertex
 10
32.8398
 20
19.5043
 30
0.0
 70
    32
  0
VERTEX
  5
590
100
AcDbEntity
  8
LAYER3
  6
CONTINUOUS
 62
   250
100
AcDbVertex
100
AcDb3dPolylineVertex
 10
32.5908
 20
19.5043
 30
0.0
 70
    32
  0
SEQEND
  5
591
100
AcDbEntity
  8
LAYER3
 62
   250
  0
POLYLINE
  5
592
100
AcDbEntity
  8
LAYER3
  6
CONTINUOUS
 62
   250
100
AcDb3dPolyline
 66
     1
 10
0.0
 20
0.0
 30
0.0
 70
     8
  0
VERTEX
  5
593
100
AcDbEntity
  8
LAYER3
  6
CONTINUOUS
 62
   250
100
AcDbVertex
100
AcDb3dPolylineVertex
 10
35.4648
 20
20.6243
 30
0.0
 70
    32
  0
VERTEX
  5
594
100
AcDbEntity
  8
LAYER3
  6
CONTINUOUS
 62
   250
100
AcDbVertex
100
AcDb3dPolylineVertex
 10
32.5908
 20
20.6243
 30
0.0
 70
    32
  0
SEQEND
  5
595
100
AcDbEntity
  8
LAYER3
 62
   250
  0
POLYLINE
  5
596
100
AcDbEntity
  8
LAYER3
  6
PHANTOM
 62
   250
100
AcDb3dPolyline
 66
     1
 10
0.0
 20
0.0
 30
0.0
 70
     8
  0
VERTEX
  5
597
100
AcDbEntity
  8
LAYER3
  6
PHANTOM
 62
   250
100
AcDbVertex
100
AcDb3dPolylineVertex
 10
32.6908
 20
19.5065
 30
0.0
 70
    32
  0
VERTEX
  5
598
100
AcDbEntity
  8
LAYER3
  6
PHANTOM
 62
   250
100
AcDbVertex
100
AcDb3dPolylineVertex
 10
32.6908
 20
19.5043
 30
0.0
 70
    32
  0
SEQEND
  5
599
100
AcDbEntity
  8
LAYER3
 62
   250
  0
POLYLINE
  5
59A
100
AcDbEntity
  8
LAYER3
  6
PHANTOM
 62
   250
100
AcDb3dPolyline
 66
     1
 10
0.0
 20
0.0
 30
0.0
 70
     8
  0
VERTEX
  5
59B
100
AcDbEntity
  8
LAYER3
  6
PHANTOM
 62
   250
100
AcDbVertex
100
AcDb3dPolylineVertex
 10
32.6908
 20
20.6221
 30
0.0
 70
    32
  0
VERTEX
  5
59C
100
AcDbEntity
  8
LAYER3
  6
PHANTOM
 62
   250
100
AcDbVertex
100
AcDb3dPolylineVertex
 10
32.6908
 20
20.6243
 30
0.0
 70
    32
  0
SEQEND
  5
59D
100
AcDbEntity
  8
LAYER3
 62
   250
  0
TEXT
  5
59E
100
AcDbEntity
  8
LAYER3
 62
   250
100
AcDbText
 10
32.7908
 20
19.7094
 30
0.0
 40
0.2
  1
1.120
 50
90.0
 41
1.120579
 72
     5
 11
32.7908
 21
20.4191
 31
0.0
100
AcDbText
  0
POLYLINE
  5
59F
100
AcDbEntity
  8
LAYER1
  6
CONTINUOUS
 62
   250
100
AcDb3dPolyline
 66
     1
 10
0.0
 20
0.0
 30
0.0
 70
     8
  0
VERTEX
  5
5A0
100
AcDbEntity
  8
LAYER1
  6
CONTINUOUS
 62
   250
100
AcDbVertex
100
AcDb3dPolylineVertex
 10
32.5131
 20
22.5662
 30
0.0
 70
    32
  0
VERTEX
  5
5A1
100
AcDbEntity
  8
LAYER1
  6
CONTINUOUS
 62
   250
100
AcDbVertex
100
AcDb3dPolylineVertex
 10
32.9386
 20
21.9021
 30
0.0
 70
    32
  0
SEQEND
  5
5A2
100
AcDbEntity
  8
LAYER1
 62
   250
  0
POLYLINE
  5
5A3
100
AcDbEntity
  8
LAYER1
  6
CONTINUOUS
 62
   250
100
AcDb3dPolyline
 66
     1
 10
0.0
 20
0.0
 30
0.0
 70
     8
  0
VERTEX
  5
5A4
100
AcDbEntity
  8
LAYER1
  6
CONTINUOUS
 62
   250
100
AcDbVertex
100
AcDb3dPolylineVertex
 10
32.9015
 20
21.9971
 30
0.0
 70
    32
  0
VERTEX
  5
5A5
100
AcDbEntity
  8
LAYER1
  6
CONTINUOUS
 62
   250
100
AcDbVertex
100
AcDb3dPolylineVertex
 10
32.9386
 20
21.9021
 30
0.0
 70
    32
  0
VERTEX
  5
5A6
100
AcDbEntity
  8
LAYER1
  6
CONTINUOUS
 62
   250
100
AcDbVertex
100
AcDb3dPolylineVertex
 10
32.8678
 20
21.9755
 30
0.0
 70
    32
  0
VERTEX
  5
5A7
100
AcDbEntity
  8
LAYER1
  6
CONTINUOUS
 62
   250
100
AcDbVertex
100
AcDb3dPolylineVertex
 10
32.9015
 20
21.9971
 30
0.0
 70
    32
  0
SEQEND
  5
5A8
100
AcDbEntity
  8
LAYER1
 62
   250
  0
POLYLINE
  5
5A9
100
AcDbEntity
  8
LAYER1
  6
CONTINUOUS
 62
   250
100
AcDb3dPolyline
 66
     1
 10
0.0
 20
0.0
 30
0.0
 70
     8
  0
VERTEX
  5
5AA
100
AcDbEntity
  8
LAYER1
  6
CONTINUOUS
 62
   250
100
AcDbVertex
100
AcDb3dPolylineVertex
 10
41.7303
 20
23.5963
 30
0.0
 70
    32
  0
VERTEX
  5
5AB
100
AcDbEntity
  8
LAYER1
  6
CONTINUOUS
 62
   250
100
AcDbVertex
100
AcDb3dPolylineVertex
 10
41.2699
 20
23.5963
 30
0.0
 70
    32
  0
SEQEND
  5
5AC
100
AcDbEntity
  8
LAYER1
 62
   250
  0
POLYLINE
  5
5AD
100
AcDbEntity
  8
LAYER1
  6
CONTINUOUS
 62
   250
100
AcDb3dPolyline
 66
     1
 10
0.0
 20
0.0
 30
0.0
 70
     8
  0
VERTEX
  5
5AE
100
AcDbEntity
  8
LAYER1
  6
CONTINUOUS
 62
   250
100
AcDbVertex
100
AcDb3dPolylineVertex
 10
41.3699
 20
23.5763
 30
0.0
 70
    32
  0
VERTEX
  5
5AF
100
AcDbEntity
  8
LAYER1
  6
CONTINUOUS
 62
   250
100
AcDbVertex
100
AcDb3dPolylineVertex
 10
41.2699
 20
23.5963
 30
0.0
 70
    32
  0
VERTEX
  5
5B0
100
AcDbEntity
  8
LAYER1
  6
CONTINUOUS
 62
   250
100
AcDbVertex
100
AcDb3dPolylineVertex
 10
41.3699
 20
23.6163
 30
0.0
 70
    32
  0
VERTEX
  5
5B1
100
AcDbEntity
  8
LAYER1
  6
CONTINUOUS
 62
   250
100
AcDbVertex
100
AcDb3dPolylineVertex
 10
41.3699
 20
23.5763
 30
0.0
 70
    32
  0
SEQEND
  5
5B2
100
AcDbEntity
  8
LAYER1
 62
   250
  0
POLYLINE
  5
5B3
100
AcDbEntity
  8
LAYER1
  6
CONTINUOUS
 62
   250
100
AcDb3dPolyline
 66
     1
 10
0.0
 20
0.0
 30
0.0
 70
     8
  0
VERTEX
  5
5B4
100
AcDbEntity
  8
LAYER1
  6
CONTINUOUS
 62
   250
100
AcDbVertex
100
AcDb3dPolylineVertex
 10
42.8294
 20
23.5963
 30
0.0
 70
    32
  0
VERTEX
  5
5B5
100
AcDbEntity
  8
LAYER1
  6
CONTINUOUS
 62
   250
100
AcDbVertex
100
AcDb3dPolylineVertex
 10
43.2899
 20
23.5963
 30
0.0
 70
    32
  0
SEQEND
  5
5B6
100
AcDbEntity
  8
LAYER1
 62
   250
  0
POLYLINE
  5
5B7
100
AcDbEntity
  8
LAYER1
  6
CONTINUOUS
 62
   250
100
AcDb3dPolyline
 66
     1
 10
0.0
 20
0.0
 30
0.0
 70
     8
  0
VERTEX
  5
5B8
100
AcDbEntity
  8
LAYER1
  6
CONTINUOUS
 62
   250
100
AcDbVertex
100
AcDb3dPolylineVertex
 10
43.1899
 20
23.6163
 30
0.0
 70
    32
  0
VERTEX
  5
5B9
100
AcDbEntity
  8
LAYER1
  6
CONTINUOUS
 62
   250
100
AcDbVertex
100
AcDb3dPolylineVertex
 10
43.2899
 20
23.5963
 30
0.0
 70
    32
  0
VERTEX
  5
5BA
100
AcDbEntity
  8
LAYER1
  6
CONTINUOUS
 62
   250
100
AcDbVertex
100
AcDb3dPolylineVertex
 10
43.1899
 20
23.5763
 30
0.0
 70
    32
  0
VERTEX
  5
5BB
100
AcDbEntity
  8
LAYER1
  6
CONTINUOUS
 62
   250
100
AcDbVertex
100
AcDb3dPolylineVertex
 10
43.1899
 20
23.6163
 30
0.0
 70
    32
  0
SEQEND
  5
5BC
100
AcDbEntity
  8
LAYER1
 62
   250
  0
POLYLINE
  5
5BD
100
AcDbEntity
  8
LAYER1
  6
CONTINUOUS
 62
   250
100
AcDb3dPolyline
 66
     1
 10
0.0
 20
0.0
 30
0.0
 70
     8
  0
VERTEX
  5
5BE
100
AcDbEntity
  8
LAYER1
  6
CONTINUOUS
 62
   250
100
AcDbVertex
100
AcDb3dPolylineVertex
 10
41.0007
 20
22.5093
 30
0.0
 70
    32
  0
VERTEX
  5
5BF
100
AcDbEntity
  8
LAYER1
  6
CONTINUOUS
 62
   250
100
AcDbVertex
100
AcDb3dPolylineVertex
 10
41.0007
 20
22.5093
 30
0.0
 70
    32
  0
SEQEND
  5
5C0
100
AcDbEntity
  8
LAYER1
 62
   250
  0
POLYLINE
  5
5C1
100
AcDbEntity
  8
LAYER1
  6
CONTINUOUS
 62
   250
100
AcDb3dPolyline
 66
     1
 10
0.0
 20
0.0
 30
0.0
 70
     8
  0
VERTEX
  5
5C2
100
AcDbEntity
  8
LAYER1
  6
CONTINUOUS
 62
   250
100
AcDbVertex
100
AcDb3dPolylineVertex
 10
40.9007
 20
22.5293
 30
0.0
 70
    32
  0
VERTEX
  5
5C3
100
AcDbEntity
  8
LAYER1
  6
CONTINUOUS
 62
   250
100
AcDbVertex
100
AcDb3dPolylineVertex
 10
41.0007
 20
22.5093
 30
0.0
 70
    32
  0
VERTEX
  5
5C4
100
AcDbEntity
  8
LAYER1
  6
CONTINUOUS
 62
   250
100
AcDbVertex
100
AcDb3dPolylineVertex
 10
40.9007
 20
22.4893
 30
0.0
 70
    32
  0
VERTEX
  5
5C5
100
AcDbEntity
  8
LAYER1
  6
CONTINUOUS
 62
   250
100
AcDbVertex
100
AcDb3dPolylineVertex
 10
40.9007
 20
22.5293
 30
0.0
 70
    32
  0
SEQEND
  5
5C6
100
AcDbEntity
  8
LAYER1
 62
   250
  0
POLYLINE
  5
5C7
100
AcDbEntity
  8
LAYER1
  6
CONTINUOUS
 62
   250
100
AcDb3dPolyline
 66
     1
 10
0.0
 20
0.0
 30
0.0
 70
     8
  0
VERTEX
  5
5C8
100
AcDbEntity
  8
LAYER1
  6
CONTINUOUS
 62
   250
100
AcDbVertex
100
AcDb3dPolylineVertex
 10
41.0007
 20
22.9593
 30
0.0
 70
    32
  0
VERTEX
  5
5C9
100
AcDbEntity
  8
LAYER1
  6
CONTINUOUS
 62
   250
100
AcDbVertex
100
AcDb3dPolylineVertex
 10
41.0007
 20
22.9593
 30
0.0
 70
    32
  0
SEQEND
  5
5CA
100
AcDbEntity
  8
LAYER1
 62
   250
  0
POLYLINE
  5
5CB
100
AcDbEntity
  8
LAYER1
  6
CONTINUOUS
 62
   250
100
AcDb3dPolyline
 66
     1
 10
0.0
 20
0.0
 30
0.0
 70
     8
  0
VERTEX
  5
5CC
100
AcDbEntity
  8
LAYER1
  6
CONTINUOUS
 62
   250
100
AcDbVertex
100
AcDb3dPolylineVertex
 10
40.9007
 20
22.9793
 30
0.0
 70
    32
  0
VERTEX
  5
5CD
100
AcDbEntity
  8
LAYER1
  6
CONTINUOUS
 62
   250
100
AcDbVertex
100
AcDb3dPolylineVertex
 10
41.0007
 20
22.9593
 30
0.0
 70
    32
  0
VERTEX
  5
5CE
100
AcDbEntity
  8
LAYER1
  6
CONTINUOUS
 62
   250
100
AcDbVertex
100
AcDb3dPolylineVertex
 10
40.9007
 20
22.9393
 30
0.0
 70
    32
  0
VERTEX
  5
5CF
100
AcDbEntity
  8
LAYER1
  6
CONTINUOUS
 62
   250
100
AcDbVertex
100
AcDb3dPolylineVertex
 10
40.9007
 20
22.9793
 30
0.0
 70
    32
  0
SEQEND
  5
5D0
100
AcDbEntity
  8
LAYER1
 62
   250
  0
POLYLINE
  5
5D1
100
AcDbEntity
  8
LAYER1
  6
CONTINUOUS
 62
   250
100
AcDb3dPolyline
 66
     1
 10
0.0
 20
0.0
 30
0.0
 70
     8
  0
VERTEX
  5
5D2
100
AcDbEntity
  8
LAYER1
  6
CONTINUOUS
 62
   250
100
AcDbVertex
100
AcDb3dPolylineVertex
 10
41.4825
 20
21.871
 30
0.0
 70
    32
  0
VERTEX
  5
5D3
100
AcDbEntity
  8
LAYER1
  6
CONTINUOUS
 62
   250
100
AcDbVertex
100
AcDb3dPolylineVertex
 10
41.4691
 20
21.871
 30
0.0
 70
    32
  0
SEQEND
  5
5D4
100
AcDbEntity
  8
LAYER1
 62
   250
  0
POLYLINE
  5
5D5
100
AcDbEntity
  8
LAYER1
  6
CONTINUOUS
 62
   250
100
AcDb3dPolyline
 66
     1
 10
0.0
 20
0.0
 30
0.0
 70
     8
  0
VERTEX
  5
5D6
100
AcDbEntity
  8
LAYER1
  6
CONTINUOUS
 62
   250
100
AcDbVertex
100
AcDb3dPolylineVertex
 10
41.5691
 20
21.851
 30
0.0
 70
    32
  0
VERTEX
  5
5D7
100
AcDbEntity
  8
LAYER1
  6
CONTINUOUS
 62
   250
100
AcDbVertex
100
AcDb3dPolylineVertex
 10
41.4691
 20
21.871
 30
0.0
 70
    32
  0
VERTEX
  5
5D8
100
AcDbEntity
  8
LAYER1
  6
CONTINUOUS
 62
   250
100
AcDbVertex
100
AcDb3dPolylineVertex
 10
41.5691
 20
21.891
 30
0.0
 70
    32
  0
VERTEX
  5
5D9
100
AcDbEntity
  8
LAYER1
  6
CONTINUOUS
 62
   250
100
AcDbVertex
100
AcDb3dPolylineVertex
 10
41.5691
 20
21.851
 30
0.0
 70
    32
  0
SEQEND
  5
5DA
100
AcDbEntity
  8
LAYER1
 62
   250
  0
POLYLINE
  5
5DB
100
AcDbEntity
  8
LAYER1
  6
CONTINUOUS
 62
   250
100
AcDb3dPolyline
 66
     1
 10
0.0
 20
0.0
 30
0.0
 70
     8
  0
VERTEX
  5
5DC
100
AcDbEntity
  8
LAYER1
  6
CONTINUOUS
 62
   250
100
AcDbVertex
100
AcDb3dPolylineVertex
 10
42.5856
 20
21.871
 30
0.0
 70
    32
  0
VERTEX
  5
5DD
100
AcDbEntity
  8
LAYER1
  6
CONTINUOUS
 62
   250
100
AcDbVertex
100
AcDb3dPolylineVertex
 10
42.5991
 20
21.871
 30
0.0
 70
    32
  0
SEQEND
  5
5DE
100
AcDbEntity
  8
LAYER1
 62
   250
  0
POLYLINE
  5
5DF
100
AcDbEntity
  8
LAYER1
  6
CONTINUOUS
 62
   250
100
AcDb3dPolyline
 66
     1
 10
0.0
 20
0.0
 30
0.0
 70
     8
  0
VERTEX
  5
5E0
100
AcDbEntity
  8
LAYER1
  6
CONTINUOUS
 62
   250
100
AcDbVertex
100
AcDb3dPolylineVertex
 10
42.4991
 20
21.891
 30
0.0
 70
    32
  0
VERTEX
  5
5E1
100
AcDbEntity
  8
LAYER1
  6
CONTINUOUS
 62
   250
100
AcDbVertex
100
AcDb3dPolylineVertex
 10
42.5991
 20
21.871
 30
0.0
 70
    32
  0
VERTEX
  5
5E2
100
AcDbEntity
  8
LAYER1
  6
CONTINUOUS
 62
   250
100
AcDbVertex
100
AcDb3dPolylineVertex
 10
42.4991
 20
21.851
 30
0.0
 70
    32
  0
VERTEX
  5
5E3
100
AcDbEntity
  8
LAYER1
  6
CONTINUOUS
 62
   250
100
AcDbVertex
100
AcDb3dPolylineVertex
 10
42.4991
 20
21.891
 30
0.0
 70
    32
  0
SEQEND
  5
5E4
100
AcDbEntity
  8
LAYER1
 62
   250
  0
POLYLINE
  5
5E5
100
AcDbEntity
  8
LAYER1
  6
CONTINUOUS
 62
   250
100
AcDb3dPolyline
 66
     1
 10
0.0
 20
0.0
 30
0.0
 70
     8
  0
VERTEX
  5
5E6
100
AcDbEntity
  8
LAYER1
  6
CONTINUOUS
 62
   250
100
AcDbVertex
100
AcDb3dPolylineVertex
 10
41.1913
 20
21.1152
 30
0.0
 70
    32
  0
VERTEX
  5
5E7
100
AcDbEntity
  8
LAYER1
  6
CONTINUOUS
 62
   250
100
AcDbVertex
100
AcDb3dPolylineVertex
 10
41.1913
 20
21.1152
 30
0.0
 70
    32
  0
SEQEND
  5
5E8
100
AcDbEntity
  8
LAYER1
 62
   250
  0
POLYLINE
  5
5E9
100
AcDbEntity
  8
LAYER1
  6
CONTINUOUS
 62
   250
100
AcDb3dPolyline
 66
     1
 10
0.0
 20
0.0
 30
0.0
 70
     8
  0
VERTEX
  5
5EA
100
AcDbEntity
  8
LAYER1
  6
CONTINUOUS
 62
   250
100
AcDbVertex
100
AcDb3dPolylineVertex
 10
41.0913
 20
21.1352
 30
0.0
 70
    32
  0
VERTEX
  5
5EB
100
AcDbEntity
  8
LAYER1
  6
CONTINUOUS
 62
   250
100
AcDbVertex
100
AcDb3dPolylineVertex
 10
41.1913
 20
21.1152
 30
0.0
 70
    32
  0
VERTEX
  5
5EC
100
AcDbEntity
  8
LAYER1
  6
CONTINUOUS
 62
   250
100
AcDbVertex
100
AcDb3dPolylineVertex
 10
41.0913
 20
21.0952
 30
0.0
 70
    32
  0
VERTEX
  5
5ED
100
AcDbEntity
  8
LAYER1
  6
CONTINUOUS
 62
   250
100
AcDbVertex
100
AcDb3dPolylineVertex
 10
41.0913
 20
21.1352
 30
0.0
 70
    32
  0
SEQEND
  5
5EE
100
AcDbEntity
  8
LAYER1
 62
   250
  0
POLYLINE
  5
5EF
100
AcDbEntity
  8
LAYER1
  6
CONTINUOUS
 62
   250
100
AcDb3dPolyline
 66
     1
 10
0.0
 20
0.0
 30
0.0
 70
     8
  0
VERTEX
  5
5F0
100
AcDbEntity
  8
LAYER1
  6
CONTINUOUS
 62
   250
100
AcDbVertex
100
AcDb3dPolylineVertex
 10
41.1913
 20
21.5652
 30
0.0
 70
    32
  0
VERTEX
  5
5F1
100
AcDbEntity
  8
LAYER1
  6
CONTINUOUS
 62
   250
100
AcDbVertex
100
AcDb3dPolylineVertex
 10
41.1913
 20
21.5652
 30
0.0
 70
    32
  0
SEQEND
  5
5F2
100
AcDbEntity
  8
LAYER1
 62
   250
  0
POLYLINE
  5
5F3
100
AcDbEntity
  8
LAYER1
  6
CONTINUOUS
 62
   250
100
AcDb3dPolyline
 66
     1
 10
0.0
 20
0.0
 30
0.0
 70
     8
  0
VERTEX
  5
5F4
100
AcDbEntity
  8
LAYER1
  6
CONTINUOUS
 62
   250
100
AcDbVertex
100
AcDb3dPolylineVertex
 10
41.0913
 20
21.5852
 30
0.0
 70
    32
  0
VERTEX
  5
5F5
100
AcDbEntity
  8
LAYER1
  6
CONTINUOUS
 62
   250
100
AcDbVertex
100
AcDb3dPolylineVertex
 10
41.1913
 20
21.5652
 30
0.0
 70
    32
  0
VERTEX
  5
5F6
100
AcDbEntity
  8
LAYER1
  6
CONTINUOUS
 62
   250
100
AcDbVertex
100
AcDb3dPolylineVertex
 10
41.0913
 20
21.5452
 30
0.0
 70
    32
  0
VERTEX
  5
5F7
100
AcDbEntity
  8
LAYER1
  6
CONTINUOUS
 62
   250
100
AcDbVertex
100
AcDb3dPolylineVertex
 10
41.0913
 20
21.5852
 30
0.0
 70
    32
  0
SEQEND
  5
5F8
100
AcDbEntity
  8
LAYER1
 62
   250
  0
POLYLINE
  5
5F9
100
AcDbEntity
  8
LAYER1
  6
CONTINUOUS
 62
   250
100
AcDb3dPolyline
 66
     1
 10
0.0
 20
0.0
 30
0.0
 70
     8
  0
VERTEX
  5
5FA
100
AcDbEntity
  8
LAYER1
  6
CONTINUOUS
 62
   250
100
AcDbVertex
100
AcDb3dPolylineVertex
 10
34.0495
 20
17.3211
 30
0.0
 70
    32
  0
VERTEX
  5
5FB
100
AcDbEntity
  8
LAYER1
  6
CONTINUOUS
 62
   250
100
AcDbVertex
100
AcDb3dPolylineVertex
 10
33.5498
 20
17.3211
 30
0.0
 70
    32
  0
SEQEND
  5
5FC
100
AcDbEntity
  8
LAYER1
 62
   250
  0
POLYLINE
  5
5FD
100
AcDbEntity
  8
LAYER1
  6
CONTINUOUS
 62
   250
100
AcDb3dPolyline
 66
     1
 10
0.0
 20
0.0
 30
0.0
 70
     8
  0
VERTEX
  5
5FE
100
AcDbEntity
  8
LAYER1
  6
CONTINUOUS
 62
   250
100
AcDbVertex
100
AcDb3dPolylineVertex
 10
33.6498
 20
17.3011
 30
0.0
 70
    32
  0
VERTEX
  5
5FF
100
AcDbEntity
  8
LAYER1
  6
CONTINUOUS
 62
   250
100
AcDbVertex
100
AcDb3dPolylineVertex
 10
33.5498
 20
17.3211
 30
0.0
 70
    32
  0
VERTEX
  5
600
100
AcDbEntity
  8
LAYER1
  6
CONTINUOUS
 62
   250
100
AcDbVertex
100
AcDb3dPolylineVertex
 10
33.6498
 20
17.3411
 30
0.0
 70
    32
  0
VERTEX
  5
601
100
AcDbEntity
  8
LAYER1
  6
CONTINUOUS
 62
   250
100
AcDbVertex
100
AcDb3dPolylineVertex
 10
33.6498
 20
17.3011
 30
0.0
 70
    32
  0
SEQEND
  5
602
100
AcDbEntity
  8
LAYER1
 62
   250
  0
POLYLINE
  5
603
100
AcDbEntity
  8
LAYER1
  6
CONTINUOUS
 62
   250
100
AcDb3dPolyline
 66
     1
 10
0.0
 20
0.0
 30
0.0
 70
     8
  0
VERTEX
  5
604
100
AcDbEntity
  8
LAYER1
  6
CONTINUOUS
 62
   250
100
AcDbVertex
100
AcDb3dPolylineVertex
 10
35.1651
 20
17.3211
 30
0.0
 70
    32
  0
VERTEX
  5
605
100
AcDbEntity
  8
LAYER1
  6
CONTINUOUS
 62
   250
100
AcDbVertex
100
AcDb3dPolylineVertex
 10
35.6648
 20
17.3211
 30
0.0
 70
    32
  0
SEQEND
  5
606
100
AcDbEntity
  8
LAYER1
 62
   250
  0
POLYLINE
  5
607
100
AcDbEntity
  8
LAYER1
  6
CONTINUOUS
 62
   250
100
AcDb3dPolyline
 66
     1
 10
0.0
 20
0.0
 30
0.0
 70
     8
  0
VERTEX
  5
608
100
AcDbEntity
  8
LAYER1
  6
CONTINUOUS
 62
   250
100
AcDbVertex
100
AcDb3dPolylineVertex
 10
35.5648
 20
17.3411
 30
0.0
 70
    32
  0
VERTEX
  5
609
100
AcDbEntity
  8
LAYER1
  6
CONTINUOUS
 62
   250
100
AcDbVertex
100
AcDb3dPolylineVertex
 10
35.6648
 20
17.3211
 30
0.0
 70
    32
  0
VERTEX
  5
60A
100
AcDbEntity
  8
LAYER1
  6
CONTINUOUS
 62
   250
100
AcDbVertex
100
AcDb3dPolylineVertex
 10
35.5648
 20
17.3011
 30
0.0
 70
    32
  0
VERTEX
  5
60B
100
AcDbEntity
  8
LAYER1
  6
CONTINUOUS
 62
   250
100
AcDbVertex
100
AcDb3dPolylineVertex
 10
35.5648
 20
17.3411
 30
0.0
 70
    32
  0
SEQEND
  5
60C
100
AcDbEntity
  8
LAYER1
 62
   250
  0
POLYLINE
  5
60D
100
AcDbEntity
  8
LAYER1
  6
CONTINUOUS
 62
   250
100
AcDb3dPolyline
 66
     1
 10
0.0
 20
0.0
 30
0.0
 70
     8
  0
VERTEX
  5
60E
100
AcDbEntity
  8
LAYER1
  6
CONTINUOUS
 62
   250
100
AcDbVertex
100
AcDb3dPolylineVertex
 10
33.822
 20
16.9204
 30
0.0
 70
    32
  0
VERTEX
  5
60F
100
AcDbEntity
  8
LAYER1
  6
CONTINUOUS
 62
   250
100
AcDbVertex
100
AcDb3dPolylineVertex
 10
33.0948
 20
16.9204
 30
0.0
 70
    32
  0
SEQEND
  5
610
100
AcDbEntity
  8
LAYER1
 62
   250
  0
POLYLINE
  5
611
100
AcDbEntity
  8
LAYER1
  6
CONTINUOUS
 62
   250
100
AcDb3dPolyline
 66
     1
 10
0.0
 20
0.0
 30
0.0
 70
     8
  0
VERTEX
  5
612
100
AcDbEntity
  8
LAYER1
  6
CONTINUOUS
 62
   250
100
AcDbVertex
100
AcDb3dPolylineVertex
 10
33.1948
 20
16.9004
 30
0.0
 70
    32
  0
VERTEX
  5
613
100
AcDbEntity
  8
LAYER1
  6
CONTINUOUS
 62
   250
100
AcDbVertex
100
AcDb3dPolylineVertex
 10
33.0948
 20
16.9204
 30
0.0
 70
    32
  0
VERTEX
  5
614
100
AcDbEntity
  8
LAYER1
  6
CONTINUOUS
 62
   250
100
AcDbVertex
100
AcDb3dPolylineVertex
 10
33.1948
 20
16.9404
 30
0.0
 70
    32
  0
VERTEX
  5
615
100
AcDbEntity
  8
LAYER1
  6
CONTINUOUS
 62
   250
100
AcDbVertex
100
AcDb3dPolylineVertex
 10
33.1948
 20
16.9004
 30
0.0
 70
    32
  0
SEQEND
  5
616
100
AcDbEntity
  8
LAYER1
 62
   250
  0
POLYLINE
  5
617
100
AcDbEntity
  8
LAYER1
  6
CONTINUOUS
 62
   250
100
AcDb3dPolyline
 66
     1
 10
0.0
 20
0.0
 30
0.0
 70
     8
  0
VERTEX
  5
618
100
AcDbEntity
  8
LAYER1
  6
CONTINUOUS
 62
   250
100
AcDbVertex
100
AcDb3dPolylineVertex
 10
34.9376
 20
16.9204
 30
0.0
 70
    32
  0
VERTEX
  5
619
100
AcDbEntity
  8
LAYER1
  6
CONTINUOUS
 62
   250
100
AcDbVertex
100
AcDb3dPolylineVertex
 10
35.6648
 20
16.9204
 30
0.0
 70
    32
  0
SEQEND
  5
61A
100
AcDbEntity
  8
LAYER1
 62
   250
  0
POLYLINE
  5
61B
100
AcDbEntity
  8
LAYER1
  6
CONTINUOUS
 62
   250
100
AcDb3dPolyline
 66
     1
 10
0.0
 20
0.0
 30
0.0
 70
     8
  0
VERTEX
  5
61C
100
AcDbEntity
  8
LAYER1
  6
CONTINUOUS
 62
   250
100
AcDbVertex
100
AcDb3dPolylineVertex
 10
35.5648
 20
16.9404
 30
0.0
 70
    32
  0
VERTEX
  5
61D
100
AcDbEntity
  8
LAYER1
  6
CONTINUOUS
 62
   250
100
AcDbVertex
100
AcDb3dPolylineVertex
 10
35.6648
 20
16.9204
 30
0.0
 70
    32
  0
VERTEX
  5
61E
100
AcDbEntity
  8
LAYER1
  6
CONTINUOUS
 62
   250
100
AcDbVertex
100
AcDb3dPolylineVertex
 10
35.5648
 20
16.9004
 30
0.0
 70
    32
  0
VERTEX
  5
61F
100
AcDbEntity
  8
LAYER1
  6
CONTINUOUS
 62
   250
100
AcDbVertex
100
AcDb3dPolylineVertex
 10
35.5648
 20
16.9404
 30
0.0
 70
    32
  0
SEQEND
  5
620
100
AcDbEntity
  8
LAYER1
 62
   250
  0
POLYLINE
  5
621
100
AcDbEntity
  8
LAYER1
  6
CONTINUOUS
 62
   250
100
AcDb3dPolyline
 66
     1
 10
0.0
 20
0.0
 30
0.0
 70
     8
  0
VERTEX
  5
622
100
AcDbEntity
  8
LAYER1
  6
CONTINUOUS
 62
   250
100
AcDbVertex
100
AcDb3dPolylineVertex
 10
33.7945
 20
16.5197
 30
0.0
 70
    32
  0
VERTEX
  5
623
100
AcDbEntity
  8
LAYER1
  6
CONTINUOUS
 62
   250
100
AcDbVertex
100
AcDb3dPolylineVertex
 10
33.0398
 20
16.5197
 30
0.0
 70
    32
  0
SEQEND
  5
624
100
AcDbEntity
  8
LAYER1
 62
   250
  0
POLYLINE
  5
625
100
AcDbEntity
  8
LAYER1
  6
CONTINUOUS
 62
   250
100
AcDb3dPolyline
 66
     1
 10
0.0
 20
0.0
 30
0.0
 70
     8
  0
VERTEX
  5
626
100
AcDbEntity
  8
LAYER1
  6
CONTINUOUS
 62
   250
100
AcDbVertex
100
AcDb3dPolylineVertex
 10
33.1398
 20
16.4997
 30
0.0
 70
    32
  0
VERTEX
  5
627
100
AcDbEntity
  8
LAYER1
  6
CONTINUOUS
 62
   250
100
AcDbVertex
100
AcDb3dPolylineVertex
 10
33.0398
 20
16.5197
 30
0.0
 70
    32
  0
VERTEX
  5
628
100
AcDbEntity
  8
LAYER1
  6
CONTINUOUS
 62
   250
100
AcDbVertex
100
AcDb3dPolylineVertex
 10
33.1398
 20
16.5397
 30
0.0
 70
    32
  0
VERTEX
  5
629
100
AcDbEntity
  8
LAYER1
  6
CONTINUOUS
 62
   250
100
AcDbVertex
100
AcDb3dPolylineVertex
 10
33.1398
 20
16.4997
 30
0.0
 70
    32
  0
SEQEND
  5
62A
100
AcDbEntity
  8
LAYER1
 62
   250
  0
POLYLINE
  5
62B
100
AcDbEntity
  8
LAYER1
  6
CONTINUOUS
 62
   250
100
AcDb3dPolyline
 66
     1
 10
0.0
 20
0.0
 30
0.0
 70
     8
  0
VERTEX
  5
62C
100
AcDbEntity
  8
LAYER1
  6
CONTINUOUS
 62
   250
100
AcDbVertex
100
AcDb3dPolylineVertex
 10
34.9101
 20
16.5197
 30
0.0
 70
    32
  0
VERTEX
  5
62D
100
AcDbEntity
  8
LAYER1
  6
CONTINUOUS
 62
   250
100
AcDbVertex
100
AcDb3dPolylineVertex
 10
35.6648
 20
16.5197
 30
0.0
 70
    32
  0
SEQEND
  5
62E
100
AcDbEntity
  8
LAYER1
 62
   250
  0
POLYLINE
  5
62F
100
AcDbEntity
  8
LAYER1
  6
CONTINUOUS
 62
   250
100
AcDb3dPolyline
 66
     1
 10
0.0
 20
0.0
 30
0.0
 70
     8
  0
VERTEX
  5
630
100
AcDbEntity
  8
LAYER1
  6
CONTINUOUS
 62
   250
100
AcDbVertex
100
AcDb3dPolylineVertex
 10
35.5648
 20
16.5397
 30
0.0
 70
    32
  0
VERTEX
  5
631
100
AcDbEntity
  8
LAYER1
  6
CONTINUOUS
 62
   250
100
AcDbVertex
100
AcDb3dPolylineVertex
 10
35.6648
 20
16.5197
 30
0.0
 70
    32
  0
VERTEX
  5
632
100
AcDbEntity
  8
LAYER1
  6
CONTINUOUS
 62
   250
100
AcDbVertex
100
AcDb3dPolylineVertex
 10
35.5648
 20
16.4997
 30
0.0
 70
    32
  0
VERTEX
  5
633
100
AcDbEntity
  8
LAYER1
  6
CONTINUOUS
 62
   250
100
AcDbVertex
100
AcDb3dPolylineVertex
 10
35.5648
 20
16.5397
 30
0.0
 70
    32
  0
SEQEND
  5
634
100
AcDbEntity
  8
LAYER1
 62
   250
  0
POLYLINE
  5
635
100
AcDbEntity
  8
LAYER1
  6
CONTINUOUS
 62
   250
100
AcDb3dPolyline
 66
     1
 10
0.0
 20
0.0
 30
0.0
 70
     8
  0
VERTEX
  5
636
100
AcDbEntity
  8
LAYER1
  6
CONTINUOUS
 62
   250
100
AcDbVertex
100
AcDb3dPolylineVertex
 10
35.6648
 20
17.7505
 30
0.0
 70
    32
  0
VERTEX
  5
637
100
AcDbEntity
  8
LAYER1
  6
CONTINUOUS
 62
   250
100
AcDbVertex
100
AcDb3dPolylineVertex
 10
35.6648
 20
17.7505
 30
0.0
 70
    32
  0
SEQEND
  5
638
100
AcDbEntity
  8
LAYER1
 62
   250
  0
POLYLINE
  5
639
100
AcDbEntity
  8
LAYER1
  6
CONTINUOUS
 62
   250
100
AcDb3dPolyline
 66
     1
 10
0.0
 20
0.0
 30
0.0
 70
     8
  0
VERTEX
  5
63A
100
AcDbEntity
  8
LAYER1
  6
CONTINUOUS
 62
   250
100
AcDbVertex
100
AcDb3dPolylineVertex
 10
35.5648
 20
17.7705
 30
0.0
 70
    32
  0
VERTEX
  5
63B
100
AcDbEntity
  8
LAYER1
  6
CONTINUOUS
 62
   250
100
AcDbVertex
100
AcDb3dPolylineVertex
 10
35.6648
 20
17.7505
 30
0.0
 70
    32
  0
VERTEX
  5
63C
100
AcDbEntity
  8
LAYER1
  6
CONTINUOUS
 62
   250
100
AcDbVertex
100
AcDb3dPolylineVertex
 10
35.5648
 20
17.7305
 30
0.0
 70
    32
  0
VERTEX
  5
63D
100
AcDbEntity
  8
LAYER1
  6
CONTINUOUS
 62
   250
100
AcDbVertex
100
AcDb3dPolylineVertex
 10
35.5648
 20
17.7705
 30
0.0
 70
    32
  0
SEQEND
  5
63E
100
AcDbEntity
  8
LAYER1
 62
   250
  0
POLYLINE
  5
63F
100
AcDbEntity
  8
LAYER1
  6
CONTINUOUS
 62
   250
100
AcDb3dPolyline
 66
     1
 10
0.0
 20
0.0
 30
0.0
 70
     8
  0
VERTEX
  5
640
100
AcDbEntity
  8
LAYER1
  6
CONTINUOUS
 62
   250
100
AcDbVertex
100
AcDb3dPolylineVertex
 10
36.7773
 20
17.7505
 30
0.0
 70
    32
  0
VERTEX
  5
641
100
AcDbEntity
  8
LAYER1
  6
CONTINUOUS
 62
   250
100
AcDbVertex
100
AcDb3dPolylineVertex
 10
36.7773
 20
17.7505
 30
0.0
 70
    32
  0
SEQEND
  5
642
100
AcDbEntity
  8
LAYER1
 62
   250
  0
POLYLINE
  5
643
100
AcDbEntity
  8
LAYER1
  6
CONTINUOUS
 62
   250
100
AcDb3dPolyline
 66
     1
 10
0.0
 20
0.0
 30
0.0
 70
     8
  0
VERTEX
  5
644
100
AcDbEntity
  8
LAYER1
  6
CONTINUOUS
 62
   250
100
AcDbVertex
100
AcDb3dPolylineVertex
 10
36.6773
 20
17.7705
 30
0.0
 70
    32
  0
VERTEX
  5
645
100
AcDbEntity
  8
LAYER1
  6
CONTINUOUS
 62
   250
100
AcDbVertex
100
AcDb3dPolylineVertex
 10
36.7773
 20
17.7505
 30
0.0
 70
    32
  0
VERTEX
  5
646
100
AcDbEntity
  8
LAYER1
  6
CONTINUOUS
 62
   250
100
AcDbVertex
100
AcDb3dPolylineVertex
 10
36.6773
 20
17.7305
 30
0.0
 70
    32
  0
VERTEX
  5
647
100
AcDbEntity
  8
LAYER1
  6
CONTINUOUS
 62
   250
100
AcDbVertex
100
AcDb3dPolylineVertex
 10
36.6773
 20
17.7705
 30
0.0
 70
    32
  0
SEQEND
  5
648
100
AcDbEntity
  8
LAYER1
 62
   250
  0
POLYLINE
  5
649
100
AcDbEntity
  8
LAYER1
  6
CONTINUOUS
 62
   250
100
AcDb3dPolyline
 66
     1
 10
0.0
 20
0.0
 30
0.0
 70
     8
  0
VERTEX
  5
64A
100
AcDbEntity
  8
LAYER1
  6
CONTINUOUS
 62
   250
100
AcDbVertex
100
AcDb3dPolylineVertex
 10
39.7889
 20
18.7153
 30
0.0
 70
    32
  0
VERTEX
  5
64B
100
AcDbEntity
  8
LAYER1
  6
CONTINUOUS
 62
   250
100
AcDbVertex
100
AcDb3dPolylineVertex
 10
39.7889
 20
17.9218
 30
0.0
 70
    32
  0
SEQEND
  5
64C
100
AcDbEntity
  8
LAYER1
 62
   250
  0
POLYLINE
  5
64D
100
AcDbEntity
  8
LAYER1
  6
CONTINUOUS
 62
   250
100
AcDb3dPolyline
 66
     1
 10
0.0
 20
0.0
 30
0.0
 70
     8
  0
VERTEX
  5
64E
100
AcDbEntity
  8
LAYER1
  6
CONTINUOUS
 62
   250
100
AcDbVertex
100
AcDb3dPolylineVertex
 10
39.8089
 20
18.0218
 30
0.0
 70
    32
  0
VERTEX
  5
64F
100
AcDbEntity
  8
LAYER1
  6
CONTINUOUS
 62
   250
100
AcDbVertex
100
AcDb3dPolylineVertex
 10
39.7889
 20
17.9218
 30
0.0
 70
    32
  0
VERTEX
  5
650
100
AcDbEntity
  8
LAYER1
  6
CONTINUOUS
 62
   250
100
AcDbVertex
100
AcDb3dPolylineVertex
 10
39.7689
 20
18.0218
 30
0.0
 70
    32
  0
VERTEX
  5
651
100
AcDbEntity
  8
LAYER1
  6
CONTINUOUS
 62
   250
100
AcDbVertex
100
AcDb3dPolylineVertex
 10
39.8089
 20
18.0218
 30
0.0
 70
    32
  0
SEQEND
  5
652
100
AcDbEntity
  8
LAYER1
 62
   250
  0
POLYLINE
  5
653
100
AcDbEntity
  8
LAYER1
  6
CONTINUOUS
 62
   250
100
AcDb3dPolyline
 66
     1
 10
0.0
 20
0.0
 30
0.0
 70
     8
  0
VERTEX
  5
654
100
AcDbEntity
  8
LAYER1
  6
CONTINUOUS
 62
   250
100
AcDbVertex
100
AcDb3dPolylineVertex
 10
39.7889
 20
19.8308
 30
0.0
 70
    32
  0
VERTEX
  5
655
100
AcDbEntity
  8
LAYER1
  6
CONTINUOUS
 62
   250
100
AcDbVertex
100
AcDb3dPolylineVertex
 10
39.7889
 20
20.6243
 30
0.0
 70
    32
  0
SEQEND
  5
656
100
AcDbEntity
  8
LAYER1
 62
   250
  0
POLYLINE
  5
657
100
AcDbEntity
  8
LAYER1
  6
CONTINUOUS
 62
   250
100
AcDb3dPolyline
 66
     1
 10
0.0
 20
0.0
 30
0.0
 70
     8
  0
VERTEX
  5
658
100
AcDbEntity
  8
LAYER1
  6
CONTINUOUS
 62
   250
100
AcDbVertex
100
AcDb3dPolylineVertex
 10
39.7689
 20
20.5243
 30
0.0
 70
    32
  0
VERTEX
  5
659
100
AcDbEntity
  8
LAYER1
  6
CONTINUOUS
 62
   250
100
AcDbVertex
100
AcDb3dPolylineVertex
 10
39.7889
 20
20.6243
 30
0.0
 70
    32
  0
VERTEX
  5
65A
100
AcDbEntity
  8
LAYER1
  6
CONTINUOUS
 62
   250
100
AcDbVertex
100
AcDb3dPolylineVertex
 10
39.8089
 20
20.5243
 30
0.0
 70
    32
  0
VERTEX
  5
65B
100
AcDbEntity
  8
LAYER1
  6
CONTINUOUS
 62
   250
100
AcDbVertex
100
AcDb3dPolylineVertex
 10
39.7689
 20
20.5243
 30
0.0
 70
    32
  0
SEQEND
  5
65C
100
AcDbEntity
  8
LAYER1
 62
   250
  0
POLYLINE
  5
65D
100
AcDbEntity
  8
LAYER1
  6
CONTINUOUS
 62
   250
100
AcDb3dPolyline
 66
     1
 10
0.0
 20
0.0
 30
0.0
 70
     8
  0
VERTEX
  5
65E
100
AcDbEntity
  8
LAYER1
  6
CONTINUOUS
 62
   250
100
AcDbVertex
100
AcDb3dPolylineVertex
 10
32.3519
 20
19.7493
 30
0.0
 70
    32
  0
VERTEX
  5
65F
100
AcDbEntity
  8
LAYER1
  6
CONTINUOUS
 62
   250
100
AcDbVertex
100
AcDb3dPolylineVertex
 10
32.3519
 20
19.7493
 30
0.0
 70
    32
  0
SEQEND
  5
660
100
AcDbEntity
  8
LAYER1
 62
   250
  0
POLYLINE
  5
661
100
AcDbEntity
  8
LAYER1
  6
CONTINUOUS
 62
   250
100
AcDb3dPolyline
 66
     1
 10
0.0
 20
0.0
 30
0.0
 70
     8
  0
VERTEX
  5
662
100
AcDbEntity
  8
LAYER1
  6
CONTINUOUS
 62
   250
100
AcDbVertex
100
AcDb3dPolylineVertex
 10
32.2519
 20
19.7693
 30
0.0
 70
    32
  0
VERTEX
  5
663
100
AcDbEntity
  8
LAYER1
  6
CONTINUOUS
 62
   250
100
AcDbVertex
100
AcDb3dPolylineVertex
 10
32.3519
 20
19.7493
 30
0.0
 70
    32
  0
VERTEX
  5
664
100
AcDbEntity
  8
LAYER1
  6
CONTINUOUS
 62
   250
100
AcDbVertex
100
AcDb3dPolylineVertex
 10
32.2519
 20
19.7293
 30
0.0
 70
    32
  0
VERTEX
  5
665
100
AcDbEntity
  8
LAYER1
  6
CONTINUOUS
 62
   250
100
AcDbVertex
100
AcDb3dPolylineVertex
 10
32.2519
 20
19.7693
 30
0.0
 70
    32
  0
SEQEND
  5
666
100
AcDbEntity
  8
LAYER1
 62
   250
  0
POLYLINE
  5
667
100
AcDbEntity
  8
LAYER1
  6
CONTINUOUS
 62
   250
100
AcDb3dPolyline
 66
     1
 10
0.0
 20
0.0
 30
0.0
 70
     8
  0
VERTEX
  5
668
100
AcDbEntity
  8
LAYER1
  6
CONTINUOUS
 62
   250
100
AcDbVertex
100
AcDb3dPolylineVertex
 10
32.3519
 20
20.6243
 30
0.0
 70
    32
  0
VERTEX
  5
669
100
AcDbEntity
  8
LAYER1
  6
CONTINUOUS
 62
   250
100
AcDbVertex
100
AcDb3dPolylineVertex
 10
32.3519
 20
20.6243
 30
0.0
 70
    32
  0
SEQEND
  5
66A
100
AcDbEntity
  8
LAYER1
 62
   250
  0
POLYLINE
  5
66B
100
AcDbEntity
  8
LAYER1
  6
CONTINUOUS
 62
   250
100
AcDb3dPolyline
 66
     1
 10
0.0
 20
0.0
 30
0.0
 70
     8
  0
VERTEX
  5
66C
100
AcDbEntity
  8
LAYER1
  6
CONTINUOUS
 62
   250
100
AcDbVertex
100
AcDb3dPolylineVertex
 10
32.2519
 20
20.6443
 30
0.0
 70
    32
  0
VERTEX
  5
66D
100
AcDbEntity
  8
LAYER1
  6
CONTINUOUS
 62
   250
100
AcDbVertex
100
AcDb3dPolylineVertex
 10
32.3519
 20
20.6243
 30
0.0
 70
    32
  0
VERTEX
  5
66E
100
AcDbEntity
  8
LAYER1
  6
CONTINUOUS
 62
   250
100
AcDbVertex
100
AcDb3dPolylineVertex
 10
32.2519
 20
20.6043
 30
0.0
 70
    32
  0
VERTEX
  5
66F
100
AcDbEntity
  8
LAYER1
  6
CONTINUOUS
 62
   250
100
AcDbVertex
100
AcDb3dPolylineVertex
 10
32.2519
 20
20.6443
 30
0.0
 70
    32
  0
SEQEND
  5
670
100
AcDbEntity
  8
LAYER1
 62
   250
  0
POLYLINE
  5
671
100
AcDbEntity
  8
LAYER1
  6
CONTINUOUS
 62
   250
100
AcDb3dPolyline
 66
     1
 10
0.0
 20
0.0
 30
0.0
 70
     8
  0
VERTEX
  5
672
100
AcDbEntity
  8
LAYER1
  6
CONTINUOUS
 62
   250
100
AcDbVertex
100
AcDb3dPolylineVertex
 10
38.8212
 20
18.9909
 30
0.0
 70
    32
  0
VERTEX
  5
673
100
AcDbEntity
  8
LAYER1
  6
CONTINUOUS
 62
   250
100
AcDbVertex
100
AcDb3dPolylineVertex
 10
38.8212
 20
18.4743
 30
0.0
 70
    32
  0
SEQEND
  5
674
100
AcDbEntity
  8
LAYER1
 62
   250
  0
POLYLINE
  5
675
100
AcDbEntity
  8
LAYER1
  6
CONTINUOUS
 62
   250
100
AcDb3dPolyline
 66
     1
 10
0.0
 20
0.0
 30
0.0
 70
     8
  0
VERTEX
  5
676
100
AcDbEntity
  8
LAYER1
  6
CONTINUOUS
 62
   250
100
AcDbVertex
100
AcDb3dPolylineVertex
 10
38.8412
 20
18.5743
 30
0.0
 70
    32
  0
VERTEX
  5
677
100
AcDbEntity
  8
LAYER1
  6
CONTINUOUS
 62
   250
100
AcDbVertex
100
AcDb3dPolylineVertex
 10
38.8212
 20
18.4743
 30
0.0
 70
    32
  0
VERTEX
  5
678
100
AcDbEntity
  8
LAYER1
  6
CONTINUOUS
 62
   250
100
AcDbVertex
100
AcDb3dPolylineVertex
 10
38.8012
 20
18.5743
 30
0.0
 70
    32
  0
VERTEX
  5
679
100
AcDbEntity
  8
LAYER1
  6
CONTINUOUS
 62
   250
100
AcDbVertex
100
AcDb3dPolylineVertex
 10
38.8412
 20
18.5743
 30
0.0
 70
    32
  0
SEQEND
  5
67A
100
AcDbEntity
  8
LAYER1
 62
   250
  0
POLYLINE
  5
67B
100
AcDbEntity
  8
LAYER1
  6
CONTINUOUS
 62
   250
100
AcDb3dPolyline
 66
     1
 10
0.0
 20
0.0
 30
0.0
 70
     8
  0
VERTEX
  5
67C
100
AcDbEntity
  8
LAYER1
  6
CONTINUOUS
 62
   250
100
AcDbVertex
100
AcDb3dPolylineVertex
 10
38.8212
 20
20.1076
 30
0.0
 70
    32
  0
VERTEX
  5
67D
100
AcDbEntity
  8
LAYER1
  6
CONTINUOUS
 62
   250
100
AcDbVertex
100
AcDb3dPolylineVertex
 10
38.8212
 20
20.6243
 30
0.0
 70
    32
  0
SEQEND
  5
67E
100
AcDbEntity
  8
LAYER1
 62
   250
  0
POLYLINE
  5
67F
100
AcDbEntity
  8
LAYER1
  6
CONTINUOUS
 62
   250
100
AcDb3dPolyline
 66
     1
 10
0.0
 20
0.0
 30
0.0
 70
     8
  0
VERTEX
  5
680
100
AcDbEntity
  8
LAYER1
  6
CONTINUOUS
 62
   250
100
AcDbVertex
100
AcDb3dPolylineVertex
 10
38.8012
 20
20.5243
 30
0.0
 70
    32
  0
VERTEX
  5
681
100
AcDbEntity
  8
LAYER1
  6
CONTINUOUS
 62
   250
100
AcDbVertex
100
AcDb3dPolylineVertex
 10
38.8212
 20
20.6243
 30
0.0
 70
    32
  0
VERTEX
  5
682
100
AcDbEntity
  8
LAYER1
  6
CONTINUOUS
 62
   250
100
AcDbVertex
100
AcDb3dPolylineVertex
 10
38.8412
 20
20.5243
 30
0.0
 70
    32
  0
VERTEX
  5
683
100
AcDbEntity
  8
LAYER1
  6
CONTINUOUS
 62
   250
100
AcDbVertex
100
AcDb3dPolylineVertex
 10
38.8012
 20
20.5243
 30
0.0
 70
    32
  0
SEQEND
  5
684
100
AcDbEntity
  8
LAYER1
 62
   250
  0
POLYLINE
  5
685
100
AcDbEntity
  8
LAYER1
  6
CONTINUOUS
 62
   250
100
AcDb3dPolyline
 66
     1
 10
0.0
 20
0.0
 30
0.0
 70
     8
  0
VERTEX
  5
686
100
AcDbEntity
  8
LAYER1
  6
CONTINUOUS
 62
   250
100
AcDbVertex
100
AcDb3dPolylineVertex
 10
39.2798
 20
18.7784
 30
0.0
 70
    32
  0
VERTEX
  5
687
100
AcDbEntity
  8
LAYER1
  6
CONTINUOUS
 62
   250
100
AcDbVertex
100
AcDb3dPolylineVertex
 10
39.2798
 20
18.0493
 30
0.0
 70
    32
  0
SEQEND
  5
688
100
AcDbEntity
  8
LAYER1
 62
   250
  0
POLYLINE
  5
689
100
AcDbEntity
  8
LAYER1
  6
CONTINUOUS
 62
   250
100
AcDb3dPolyline
 66
     1
 10
0.0
 20
0.0
 30
0.0
 70
     8
  0
VERTEX
  5
68A
100
AcDbEntity
  8
LAYER1
  6
CONTINUOUS
 62
   250
100
AcDbVertex
100
AcDb3dPolylineVertex
 10
39.2998
 20
18.1493
 30
0.0
 70
    32
  0
VERTEX
  5
68B
100
AcDbEntity
  8
LAYER1
  6
CONTINUOUS
 62
   250
100
AcDbVertex
100
AcDb3dPolylineVertex
 10
39.2798
 20
18.0493
 30
0.0
 70
    32
  0
VERTEX
  5
68C
100
AcDbEntity
  8
LAYER1
  6
CONTINUOUS
 62
   250
100
AcDbVertex
100
AcDb3dPolylineVertex
 10
39.2598
 20
18.1493
 30
0.0
 70
    32
  0
VERTEX
  5
68D
100
AcDbEntity
  8
LAYER1
  6
CONTINUOUS
 62
   250
100
AcDbVertex
100
AcDb3dPolylineVertex
 10
39.2998
 20
18.1493
 30
0.0
 70
    32
  0
SEQEND
  5
68E
100
AcDbEntity
  8
LAYER1
 62
   250
  0
POLYLINE
  5
68F
100
AcDbEntity
  8
LAYER1
  6
CONTINUOUS
 62
   250
100
AcDb3dPolyline
 66
     1
 10
0.0
 20
0.0
 30
0.0
 70
     8
  0
VERTEX
  5
690
100
AcDbEntity
  8
LAYER1
  6
CONTINUOUS
 62
   250
100
AcDbVertex
100
AcDb3dPolylineVertex
 10
39.2798
 20
19.8951
 30
0.0
 70
    32
  0
VERTEX
  5
691
100
AcDbEntity
  8
LAYER1
  6
CONTINUOUS
 62
   250
100
AcDbVertex
100
AcDb3dPolylineVertex
 10
39.2798
 20
20.6243
 30
0.0
 70
    32
  0
SEQEND
  5
692
100
AcDbEntity
  8
LAYER1
 62
   250
  0
POLYLINE
  5
693
100
AcDbEntity
  8
LAYER1
  6
CONTINUOUS
 62
   250
100
AcDb3dPolyline
 66
     1
 10
0.0
 20
0.0
 30
0.0
 70
     8
  0
VERTEX
  5
694
100
AcDbEntity
  8
LAYER1
  6
CONTINUOUS
 62
   250
100
AcDbVertex
100
AcDb3dPolylineVertex
 10
39.2598
 20
20.5243
 30
0.0
 70
    32
  0
VERTEX
  5
695
100
AcDbEntity
  8
LAYER1
  6
CONTINUOUS
 62
   250
100
AcDbVertex
100
AcDb3dPolylineVertex
 10
39.2798
 20
20.6243
 30
0.0
 70
    32
  0
VERTEX
  5
696
100
AcDbEntity
  8
LAYER1
  6
CONTINUOUS
 62
   250
100
AcDbVertex
100
AcDb3dPolylineVertex
 10
39.2998
 20
20.5243
 30
0.0
 70
    32
  0
VERTEX
  5
697
100
AcDbEntity
  8
LAYER1
  6
CONTINUOUS
 62
   250
100
AcDbVertex
100
AcDb3dPolylineVertex
 10
39.2598
 20
20.5243
 30
0.0
 70
    32
  0
SEQEND
  5
698
100
AcDbEntity
  8
LAYER1
 62
   250
  0
POLYLINE
  5
699
100
AcDbEntity
  8
LAYER1
  6
CONTINUOUS
 62
   250
100
AcDb3dPolyline
 66
     1
 10
0.0
 20
0.0
 30
0.0
 70
     8
  0
VERTEX
  5
69A
100
AcDbEntity
  8
LAYER1
  6
CONTINUOUS
 62
   250
100
AcDbVertex
100
AcDb3dPolylineVertex
 10
36.7773
 20
23.1993
 30
0.0
 70
    32
  0
VERTEX
  5
69B
100
AcDbEntity
  8
LAYER1
  6
CONTINUOUS
 62
   250
100
AcDbVertex
100
AcDb3dPolylineVertex
 10
36.7467
 20
23.1195
 30
0.0
 70
    32
  0
SEQEND
  5
69C
100
AcDbEntity
  8
LAYER1
 62
   250
  0
POLYLINE
  5
69D
100
AcDbEntity
  8
LAYER1
  6
CONTINUOUS
 62
   250
100
AcDb3dPolyline
 66
     1
 10
0.0
 20
0.0
 30
0.0
 70
     8
  0
VERTEX
  5
69E
100
AcDbEntity
  8
LAYER1
  6
CONTINUOUS
 62
   250
100
AcDbVertex
100
AcDb3dPolylineVertex
 10
36.8012
 20
23.2057
 30
0.0
 70
    32
  0
VERTEX
  5
69F
100
AcDbEntity
  8
LAYER1
  6
CONTINUOUS
 62
   250
100
AcDbVertex
100
AcDb3dPolylineVertex
 10
36.7467
 20
23.1195
 30
0.0
 70
    32
  0
VERTEX
  5
6A0
100
AcDbEntity
  8
LAYER1
  6
CONTINUOUS
 62
   250
100
AcDbVertex
100
AcDb3dPolylineVertex
 10
36.7638
 20
23.22
 30
0.0
 70
    32
  0
VERTEX
  5
6A1
100
AcDbEntity
  8
LAYER1
  6
CONTINUOUS
 62
   250
100
AcDbVertex
100
AcDb3dPolylineVertex
 10
36.8012
 20
23.2057
 30
0.0
 70
    32
  0
SEQEND
  5
6A2
100
AcDbEntity
  8
LAYER1
 62
   250
  0
POLYLINE
  5
6A3
100
AcDbEntity
  8
LAYER1
  6
CONTINUOUS
 62
   250
100
AcDb3dPolyline
 66
     1
 10
0.0
 20
0.0
 30
0.0
 70
     8
  0
VERTEX
  5
6A4
100
AcDbEntity
  8
LAYER1
  6
CONTINUOUS
 62
   250
100
AcDbVertex
100
AcDb3dPolylineVertex
 10
36.7773
 20
23.1993
 30
0.0
 70
    32
  0
VERTEX
  5
6A5
100
AcDbEntity
  8
LAYER1
  6
CONTINUOUS
 62
   250
100
AcDbVertex
100
AcDb3dPolylineVertex
 10
36.8079
 20
23.2791
 30
0.0
 70
    32
  0
SEQEND
  5
6A6
100
AcDbEntity
  8
LAYER1
 62
   250
  0
POLYLINE
  5
6A7
100
AcDbEntity
  8
LAYER1
  6
CONTINUOUS
 62
   250
100
AcDb3dPolyline
 66
     1
 10
0.0
 20
0.0
 30
0.0
 70
     8
  0
VERTEX
  5
6A8
100
AcDbEntity
  8
LAYER1
  6
CONTINUOUS
 62
   250
100
AcDbVertex
100
AcDb3dPolylineVertex
 10
36.7534
 20
23.1929
 30
0.0
 70
    32
  0
VERTEX
  5
6A9
100
AcDbEntity
  8
LAYER1
  6
CONTINUOUS
 62
   250
100
AcDbVertex
100
AcDb3dPolylineVertex
 10
36.8079
 20
23.2791
 30
0.0
 70
    32
  0
VERTEX
  5
6AA
100
AcDbEntity
  8
LAYER1
  6
CONTINUOUS
 62
   250
100
AcDbVertex
100
AcDb3dPolylineVertex
 10
36.7908
 20
23.1786
 30
0.0
 70
    32
  0
VERTEX
  5
6AB
100
AcDbEntity
  8
LAYER1
  6
CONTINUOUS
 62
   250
100
AcDbVertex
100
AcDb3dPolylineVertex
 10
36.7534
 20
23.1929
 30
0.0
 70
    32
  0
SEQEND
  5
6AC
100
AcDbEntity
  8
LAYER1
 62
   250
  0
POLYLINE
  5
6AD
100
AcDbEntity
  8
LAYER1
  6
CONTINUOUS
 62
   250
100
AcDb3dPolyline
 66
     1
 10
0.0
 20
0.0
 30
0.0
 70
     8
  0
VERTEX
  5
6AE
100
AcDbEntity
  8
LAYER1
  6
CONTINUOUS
 62
   250
100
AcDbVertex
100
AcDb3dPolylineVertex
 10
32.6908
 20
19.5065
 30
0.0
 70
    32
  0
VERTEX
  5
6AF
100
AcDbEntity
  8
LAYER1
  6
CONTINUOUS
 62
   250
100
AcDbVertex
100
AcDb3dPolylineVertex
 10
32.6908
 20
19.5043
 30
0.0
 70
    32
  0
SEQEND
  5
6B0
100
AcDbEntity
  8
LAYER1
 62
   250
  0
POLYLINE
  5
6B1
100
AcDbEntity
  8
LAYER1
  6
CONTINUOUS
 62
   250
100
AcDb3dPolyline
 66
     1
 10
0.0
 20
0.0
 30
0.0
 70
     8
  0
VERTEX
  5
6B2
100
AcDbEntity
  8
LAYER1
  6
CONTINUOUS
 62
   250
100
AcDbVertex
100
AcDb3dPolylineVertex
 10
32.7108
 20
19.6043
 30
0.0
 70
    32
  0
VERTEX
  5
6B3
100
AcDbEntity
  8
LAYER1
  6
CONTINUOUS
 62
   250
100
AcDbVertex
100
AcDb3dPolylineVertex
 10
32.6908
 20
19.5043
 30
0.0
 70
    32
  0
VERTEX
  5
6B4
100
AcDbEntity
  8
LAYER1
  6
CONTINUOUS
 62
   250
100
AcDbVertex
100
AcDb3dPolylineVertex
 10
32.6708
 20
19.6043
 30
0.0
 70
    32
  0
VERTEX
  5
6B5
100
AcDbEntity
  8
LAYER1
  6
CONTINUOUS
 62
   250
100
AcDbVertex
100
AcDb3dPolylineVertex
 10
32.7108
 20
19.6043
 30
0.0
 70
    32
  0
SEQEND
  5
6B6
100
AcDbEntity
  8
LAYER1
 62
   250
  0
POLYLINE
  5
6B7
100
AcDbEntity
  8
LAYER1
  6
CONTINUOUS
 62
   250
100
AcDb3dPolyline
 66
     1
 10
0.0
 20
0.0
 30
0.0
 70
     8
  0
VERTEX
  5
6B8
100
AcDbEntity
  8
LAYER1
  6
CONTINUOUS
 62
   250
100
AcDbVertex
100
AcDb3dPolylineVertex
 10
32.6908
 20
20.6221
 30
0.0
 70
    32
  0
VERTEX
  5
6B9
100
AcDbEntity
  8
LAYER1
  6
CONTINUOUS
 62
   250
100
AcDbVertex
100
AcDb3dPolylineVertex
 10
32.6908
 20
20.6243
 30
0.0
 70
    32
  0
SEQEND
  5
6BA
100
AcDbEntity
  8
LAYER1
 62
   250
  0
POLYLINE
  5
6BB
100
AcDbEntity
  8
LAYER1
  6
CONTINUOUS
 62
   250
100
AcDb3dPolyline
 66
     1
 10
0.0
 20
0.0
 30
0.0
 70
     8
  0
VERTEX
  5
6BC
100
AcDbEntity
  8
LAYER1
  6
CONTINUOUS
 62
   250
100
AcDbVertex
100
AcDb3dPolylineVertex
 10
32.6708
 20
20.5243
 30
0.0
 70
    32
  0
VERTEX
  5
6BD
100
AcDbEntity
  8
LAYER1
  6
CONTINUOUS
 62
   250
100
AcDbVertex
100
AcDb3dPolylineVertex
 10
32.6908
 20
20.6243
 30
0.0
 70
    32
  0
VERTEX
  5
6BE
100
AcDbEntity
  8
LAYER1
  6
CONTINUOUS
 62
   250
100
AcDbVertex
100
AcDb3dPolylineVertex
 10
32.7108
 20
20.5243
 30
0.0
 70
    32
  0
VERTEX
  5
6BF
100
AcDbEntity
  8
LAYER1
  6
CONTINUOUS
 62
   250
100
AcDbVertex
100
AcDb3dPolylineVertex
 10
32.6708
 20
20.5243
 30
0.0
 70
    32
  0
SEQEND
  5
6C0
100
AcDbEntity
  8
LAYER1
 62
   250
  0
ENDSEC
  0
SECTION
  2
OBJECTS
  0
DICTIONARY
  5
C
100
AcDbDictionary
  3
ACAD_GROUP
350
D
  3
ACAD_MLINESTYLE
350
1B
  0
DICTIONARY
  5
D
102
{ACAD_REACTORS
330
C
102
}
100
AcDbDictionary
  0
DICTIONARY
  5
1B
102
{ACAD_REACTORS
330
C
102
}
100
AcDbDictionary
  3
STANDARD
350
1C
  0
MLINESTYLE
  5
1C
102
{ACAD_REACTORS
330
1B
102
}
100
AcDbMlineStyle
  2
STANDARD
 70
     0
  3

 62
   256
 51
90.0
 52
90.0
 71
     2
 49
0.5
 62
   256
  6
BYLAYER
 49
-0.5
 62
   256
  6
BYLAYER
  0
ENDSEC
  0
EOF
