  0
SECTION
  2
HEADER
  9
$ACADVER
  1
AC1014
  9
$ACADMAINTVER
 70
     0
  9
$DWGCODEPAGE
  3
ANSI_1252
  9
$INSBASE
 10
0.0
 20
0.0
 30
0.0
  9
$EXTMIN
 10
15.8226
 20
5.6752
 30
0.0
  9
$EXTMAX
 10
32.8348
 20
17.4996
 30
0.0
  9
$LIMMIN
 10
15.8226
 20
5.6739
  9
$LIMMAX
 10
32.8348
 20
17.4996
  9
$ORTHOMODE
 70
     0
  9
$REGENMODE
 70
     1
  9
$FILLMODE
 70
     1
  9
$QTEXTMODE
 70
     0
  9
$MIRRTEXT
 70
     1
  9
$DRAGMODE
 70
     2
  9
$LTSCALE
 40
1.0
  9
$OSMODE
 70
     0
  9
$ATTMODE
 70
     1
  9
$TEXTSIZE
 40
0.2
  9
$TRACEWID
 40
0.05
  9
$TEXTSTYLE
  7
STANDARD
  9
$CLAYER
  8
0
  9
$CELTYPE
  6
BYLAYER
  9
$CECOLOR
 62
   256
  9
$CELTSCALE
 40
1.0
  9
$DELOBJ
 70
     1
  9
$DISPSILH
 70
     0
  9
$DIMSCALE
 40
1.0
  9
$DIMASZ
 40
0.18
  9
$DIMEXO
 40
0.0625
  9
$DIMDLI
 40
0.38
  9
$DIMRND
 40
0.0
  9
$DIMDLE
 40
0.0
  9
$DIMEXE
 40
0.18
  9
$DIMTP
 40
0.0
  9
$DIMTM
 40
0.0
  9
$DIMTXT
 40
0.18
  9
$DIMCEN
 40
0.09
  9
$DIMTSZ
 40
0.0
  9
$DIMTOL
 70
     0
  9
$DIMLIM
 70
     0
  9
$DIMTIH
 70
     1
  9
$DIMTOH
 70
     1
  9
$DIMSE1
 70
     0
  9
$DIMSE2
 70
     0
  9
$DIMTAD
 70
     0
  9
$DIMZIN
 70
     0
  9
$DIMBLK
  1

  9
$DIMASO
 70
     1
  9
$DIMSHO
 70
     0
  9
$DIMPOST
  1

  9
$DIMAPOST
  1

  9
$DIMALT
 70
     0
  9
$DIMALTD
 70
     2
  9
$DIMALTF
 40
25.4
  9
$DIMLFAC
 40
1.0
  9
$DIMTOFL
 70
     0
  9
$DIMTVP
 40
0.0
  9
$DIMTIX
 70
     0
  9
$DIMSOXD
 70
     0
  9
$DIMSAH
 70
     0
  9
$DIMBLK1
  1

  9
$DIMBLK2
  1

  9
$DIMSTYLE
  2
STANDARD
  9
$DIMCLRD
 70
     0
  9
$DIMCLRE
 70
     0
  9
$DIMCLRT
 70
     0
  9
$DIMTFAC
 40
1.0
  9
$DIMGAP
 40
0.09
  9
$DIMJUST
 70
     0
  9
$DIMSD1
 70
     0
  9
$DIMSD2
 70
     0
  9
$DIMTOLJ
 70
     1
  9
$DIMTZIN
 70
     0
  9
$DIMALTZ
 70
     0
  9
$DIMALTTZ
 70
     0
  9
$DIMFIT
 70
     3
  9
$DIMUPT
 70
     0
  9
$DIMUNIT
 70
     2
  9
$DIMDEC
 70
     4
  9
$DIMTDEC
 70
     4
  9
$DIMALTU
 70
     2
  9
$DIMALTTD
 70
     2
  9
$DIMTXSTY
  7
STANDARD
  9
$DIMAUNIT
 70
     0
  9
$LUNITS
 70
     2
  9
$LUPREC
 70
     4
  9
$SKETCHINC
 40
0.1
  9
$FILLETRAD
 40
0.0
  9
$AUNITS
 70
     0
  9
$AUPREC
 70
     0
  9
$MENU
  1
acad
  9
$ELEVATION
 40
0.0
  9
$PELEVATION
 40
0.0
  9
$THICKNESS
 40
0.0
  9
$LIMCHECK
 70
     0
  9
$BLIPMODE
 70
     1
  9
$CHAMFERA
 40
0.0
  9
$CHAMFERB
 40
0.0
  9
$CHAMFERC
 40
0.0
  9
$CHAMFERD
 40
0.0
  9
$SKPOLY
 70
     0
  9
$TDCREATE
 40
2447222.566688657
  9
$TDUPDATE
 40
2451185.673366782
  9
$TDINDWG
 40
0.0078625926
  9
$TDUSRTIMER
 40
0.0078625926
  9
$USRTIMER
 70
     1
  9
$ANGBASE
 50
0.0
  9
$ANGDIR
 70
     0
  9
$PDMODE
 70
     0
  9
$PDSIZE
 40
0.0
  9
$PLINEWID
 40
0.0
  9
$COORDS
 70
     0
  9
$SPLFRAME
 70
     0
  9
$SPLINETYPE
 70
     6
  9
$SPLINESEGS
 70
     8
  9
$ATTDIA
 70
     0
  9
$ATTREQ
 70
     1
  9
$HANDLING
 70
     1
  9
$HANDSEED
  5
3FF
  9
$SURFTAB1
 70
     6
  9
$SURFTAB2
 70
     6
  9
$SURFTYPE
 70
     6
  9
$SURFU
 70
     6
  9
$SURFV
 70
     6
  9
$UCSNAME
  2

  9
$UCSORG
 10
0.0
 20
0.0
 30
0.0
  9
$UCSXDIR
 10
1.0
 20
0.0
 30
0.0
  9
$UCSYDIR
 10
0.0
 20
1.0
 30
0.0
  9
$PUCSNAME
  2

  9
$PUCSORG
 10
0.0
 20
0.0
 30
0.0
  9
$PUCSXDIR
 10
1.0
 20
0.0
 30
0.0
  9
$PUCSYDIR
 10
0.0
 20
1.0
 30
0.0
  9
$USERI1
 70
     0
  9
$USERI2
 70
     0
  9
$USERI3
 70
     0
  9
$USERI4
 70
     0
  9
$USERI5
 70
     0
  9
$USERR1
 40
0.0
  9
$USERR2
 40
0.0
  9
$USERR3
 40
0.0
  9
$USERR4
 40
0.0
  9
$USERR5
 40
0.0
  9
$WORLDVIEW
 70
     1
  9
$SHADEDGE
 70
     3
  9
$SHADEDIF
 70
    70
  9
$TILEMODE
 70
     1
  9
$MAXACTVP
 70
    48
  9
$PINSBASE
 10
0.0
 20
0.0
 30
0.0
  9
$PLIMCHECK
 70
     0
  9
$PEXTMIN
 10
1.000000E+20
 20
1.000000E+20
 30
1.000000E+20
  9
$PEXTMAX
 10
-1.000000E+20
 20
-1.000000E+20
 30
-1.000000E+20
  9
$PLIMMIN
 10
0.0
 20
0.0
  9
$PLIMMAX
 10
12.0
 20
9.0
  9
$UNITMODE
 70
     0
  9
$VISRETAIN
 70
     1
  9
$PLINEGEN
 70
     0
  9
$PSLTSCALE
 70
     1
  9
$TREEDEPTH
 70
  3020
  9
$PICKSTYLE
 70
     1
  9
$CMLSTYLE
  2
STANDARD
  9
$CMLJUST
 70
     0
  9
$CMLSCALE
 40
1.0
  9
$PROXYGRAPHICS
 70
     1
  9
$MEASUREMENT
 70
     0
  0
ENDSEC
  0
SECTION
  2
CLASSES
  0
ENDSEC
  0
SECTION
  2
TABLES
  0
TABLE
  2
VPORT
  5
8
100
AcDbSymbolTable
 70
     2
  0
VPORT
  5
3FE
100
AcDbSymbolTableRecord
100
AcDbViewportTableRecord
  2
*ACTIVE
 70
     0
 10
0.0
 20
0.0
 11
1.0
 21
1.0
 12
24.3287
 22
11.58693
 13
0.0
 23
0.0
 14
1.0
 24
1.0
 15
0.0
 25
0.0
 16
0.0
 26
0.0
 36
1.0
 17
0.0
 27
0.0
 37
0.0
 40
11.888854
 41
1.4845
 42
50.0
 43
0.0
 44
0.0
 50
0.0
 51
0.0
 71
     0
 72
   100
 73
     1
 74
     1
 75
     0
 76
     0
 77
     0
 78
     0
  0
ENDTAB
  0
TABLE
  2
LTYPE
  5
5
100
AcDbSymbolTable
 70
    13
  0
LTYPE
  5
12
100
AcDbSymbolTableRecord
100
AcDbLinetypeTableRecord
  2
BYBLOCK
 70
     0
  3

 72
    65
 73
     0
 40
0.0
  0
LTYPE
  5
13
100
AcDbSymbolTableRecord
100
AcDbLinetypeTableRecord
  2
BYLAYER
 70
     0
  3

 72
    65
 73
     0
 40
0.0
  0
LTYPE
  5
14
100
AcDbSymbolTableRecord
100
AcDbLinetypeTableRecord
  2
CONTINUOUS
 70
     0
  3
Solid line
 72
    65
 73
     0
 40
0.0
  0
LTYPE
  5
1F
100
AcDbSymbolTableRecord
100
AcDbLinetypeTableRecord
  2
DASHED
 70
     0
  3
__ __ __ __ __ __ __ __ __ __ __ __ __ __ __
 72
    65
 73
     2
 40
0.75
 49
0.5
 74
     0
 49
-0.25
 74
     0
  0
LTYPE
  5
20
100
AcDbSymbolTableRecord
100
AcDbLinetypeTableRecord
  2
HIDDEN
 70
     0
  3
_ _ _ _ _ _ _ _ _ _ _ _ _ _ _ _ _ _ _ _ _ _ _
 72
    65
 73
     2
 40
0.375
 49
0.25
 74
     0
 49
-0.125
 74
     0
  0
LTYPE
  5
21
100
AcDbSymbolTableRecord
100
AcDbLinetypeTableRecord
  2
CENTER
 70
     0
  3
____ _ ____ _ ____ _ ____ _ ____ _ ____ _ ____
 72
    65
 73
     4
 40
2.0
 49
1.25
 74
     0
 49
-0.25
 74
     0
 49
0.25
 74
     0
 49
-0.25
 74
     0
  0
LTYPE
  5
22
100
AcDbSymbolTableRecord
100
AcDbLinetypeTableRecord
  2
PHANTOM
 70
     0
  3
_____ _ _ _____ _ _ _____ _ _ _____ _ _ ____
 72
    65
 73
     6
 40
2.5
 49
1.25
 74
     0
 49
-0.25
 74
     0
 49
0.25
 74
     0
 49
-0.25
 74
     0
 49
0.25
 74
     0
 49
-0.25
 74
     0
  0
LTYPE
  5
23
100
AcDbSymbolTableRecord
100
AcDbLinetypeTableRecord
  2
DOT
 70
     0
  3
...............................................
 72
    65
 73
     2
 40
0.25
 49
0.0
 74
     0
 49
-0.25
 74
     0
  0
LTYPE
  5
24
100
AcDbSymbolTableRecord
100
AcDbLinetypeTableRecord
  2
DASHDOT
 70
     0
  3
__ . __ . __ . __ . __ . __ . __ . __ . __ . __
 72
    65
 73
     4
 40
1.0
 49
0.5
 74
     0
 49
-0.25
 74
     0
 49
0.0
 74
     0
 49
-0.25
 74
     0
  0
LTYPE
  5
25
100
AcDbSymbolTableRecord
100
AcDbLinetypeTableRecord
  2
BORDER
 70
     0
  3
__ __ . __ __ . __ __ . __ __ . __ __ . __ __
 72
    65
 73
     6
 40
1.75
 49
0.5
 74
     0
 49
-0.25
 74
     0
 49
0.5
 74
     0
 49
-0.25
 74
     0
 49
0.0
 74
     0
 49
-0.25
 74
     0
  0
LTYPE
  5
26
100
AcDbSymbolTableRecord
100
AcDbLinetypeTableRecord
  2
DIVIDE
 70
     0
  3
__ . . __ . . __ . . __ . . __ . . __ . . __
 72
    65
 73
     6
 40
1.25
 49
0.5
 74
     0
 49
-0.25
 74
     0
 49
0.0
 74
     0
 49
-0.25
 74
     0
 49
0.0
 74
     0
 49
-0.25
 74
     0
  0
LTYPE
  5
27
100
AcDbSymbolTableRecord
100
AcDbLinetypeTableRecord
  2
DCTYPE1
 70
     0
  3
__ . . __ . . __ . . __ . . __ . . __ . . __
 72
    65
 73
     8
 40
2.5
 49
0.5
 74
     0
 49
-0.25
 74
     0
 49
0.125
 74
     0
 49
-0.25
 74
     0
 49
0.25
 74
     0
 49
-0.25
 74
     0
 49
0.125
 74
     0
 49
-0.25
 74
     0
  0
LTYPE
  5
28
100
AcDbSymbolTableRecord
100
AcDbLinetypeTableRecord
  2
DCTYPE2
 70
     0
  3
__ . . __ . . __ . . __ . . __ . . __ . . __
 72
    65
 73
     6
 40
2.05
 49
1.0
 74
     0
 49
-0.3
 74
     0
 49
0.15
 74
     0
 49
-0.15
 74
     0
 49
0.15
 74
     0
 49
-0.3
 74
     0
  0
LTYPE
  5
29
100
AcDbSymbolTableRecord
100
AcDbLinetypeTableRecord
  2
DCTYPE3
 70
     0
  3
__ . . __ . . __ . . __ . . __ . . __ . . __
 72
    65
 73
     6
 40
2.5
 49
0.8
 74
     0
 49
-0.2
 74
     0
 49
0.8
 74
     0
 49
-0.2
 74
     0
 49
0.3
 74
     0
 49
-0.2
 74
     0
  0
LTYPE
  5
2A
100
AcDbSymbolTableRecord
100
AcDbLinetypeTableRecord
  2
DCTYPE4
 70
     0
  3
__ . . __ . . __ . . __ . . __ . . __ . . __
 72
    65
 73
    10
 40
3.97
 49
1.75
 74
     0
 49
-0.3
 74
     0
 49
0.3
 74
     0
 49
-0.3
 74
     0
 49
0.06
 74
     0
 49
-0.3
 74
     0
 49
0.06
 74
     0
 49
-0.3
 74
     0
 49
0.3
 74
     0
 49
-0.3
 74
     0
  0
ENDTAB
  0
TABLE
  2
LAYER
  5
2
100
AcDbSymbolTable
 70
     6
  0
LAYER
  5
E
100
AcDbSymbolTableRecord
100
AcDbLayerTableRecord
  2
0
 70
     0
 62
     7
  6
CONTINUOUS
  0
LAYER
  5
2B
100
AcDbSymbolTableRecord
100
AcDbLayerTableRecord
  2
LAYER1
 70
     0
 62
   250
  6
CONTINUOUS
  0
LAYER
  5
2C
100
AcDbSymbolTableRecord
100
AcDbLayerTableRecord
  2
LAYER2
 70
     0
 62
   250
  6
CONTINUOUS
  0
LAYER
  5
2D
100
AcDbSymbolTableRecord
100
AcDbLayerTableRecord
  2
LAYER3
 70
     0
 62
   250
  6
CONTINUOUS
  0
LAYER
  5
2E
100
AcDbSymbolTableRecord
100
AcDbLayerTableRecord
  2
LAYER4
 70
     0
 62
   250
  6
CONTINUOUS
  0
LAYER
  5
2F
100
AcDbSymbolTableRecord
100
AcDbLayerTableRecord
  2
LAYER7
 70
     0
 62
   250
  6
CONTINUOUS
  0
ENDTAB
  0
TABLE
  2
STYLE
  5
3
100
AcDbSymbolTable
 70
     1
  0
STYLE
  5
F
100
AcDbSymbolTableRecord
100
AcDbTextStyleTableRecord
  2
STANDARD
 70
     0
 40
0.0
 41
1.0
 50
0.0
 71
     0
 42
0.2
  3
txt
  4

  0
ENDTAB
  0
TABLE
  2
VIEW
  5
6
100
AcDbSymbolTable
 70
     0
  0
ENDTAB
  0
TABLE
  2
UCS
  5
7
100
AcDbSymbolTable
 70
     0
  0
ENDTAB
  0
TABLE
  2
APPID
  5
9
100
AcDbSymbolTable
 70
     1
  0
APPID
  5
10
100
AcDbSymbolTableRecord
100
AcDbRegAppTableRecord
  2
ACAD
 70
     0
  0
ENDTAB
  0
TABLE
  2
DIMSTYLE
  5
A
100
AcDbSymbolTable
 70
     1
  0
DIMSTYLE
105
3F2
100
AcDbSymbolTableRecord
100
AcDbDimStyleTableRecord
  2
STANDARD
 70
     0
  3

  4

  5

  6

  7

 40
1.0
 41
0.18
 42
0.0625
 43
0.38
 44
0.18
 45
0.0
 46
0.0
 47
0.0
 48
0.0
140
0.18
141
0.09
142
0.0
143
25.4
144
1.0
145
0.0
146
1.0
147
0.09
 71
     0
 72
     0
 73
     1
 74
     1
 75
     0
 76
     0
 77
     0
 78
     0
170
     0
171
     2
172
     0
173
     0
174
     0
175
     0
176
     0
177
     0
178
     0
270
     2
271
     4
272
     4
273
     2
274
     2
340
F
275
     0
280
     0
281
     0
282
     0
283
     1
284
     0
285
     0
286
     0
287
     3
288
     0
  0
ENDTAB
  0
TABLE
  2
BLOCK_RECORD
  5
1
100
AcDbSymbolTable
 70
     0
  0
BLOCK_RECORD
  5
18
100
AcDbSymbolTableRecord
100
AcDbBlockTableRecord
  2
*MODEL_SPACE
  0
BLOCK_RECORD
  5
15
100
AcDbSymbolTableRecord
100
AcDbBlockTableRecord
  2
*PAPER_SPACE
  0
ENDTAB
  0
ENDSEC
  0
SECTION
  2
BLOCKS
  0
BLOCK
  5
19
100
AcDbEntity
  8
0
100
AcDbBlockBegin
  2
*MODEL_SPACE
 70
     0
 10
0.0
 20
0.0
 30
0.0
  3
*MODEL_SPACE
  1

  0
ENDBLK
  5
1A
100
AcDbEntity
  8
0
100
AcDbBlockEnd
  0
BLOCK
  5
16
100
AcDbEntity
 67
     1
  8
0
100
AcDbBlockBegin
  2
*PAPER_SPACE
 70
     0
 10
0.0
 20
0.0
 30
0.0
  3
*PAPER_SPACE
  1

  0
ENDBLK
  5
17
100
AcDbEntity
 67
     1
  8
0
100
AcDbBlockEnd
  0
ENDSEC
  0
SECTION
  2
ENTITIES
  0
POINT
  5
30
100
AcDbEntity
  8
LAYER2
100
AcDbPoint
 10
26.1702
 20
8.1231
 30
0.0
  0
POLYLINE
  5
224
100
AcDbEntity
  8
LAYER2
  6
CONTINUOUS
 62
   250
100
AcDb3dPolyline
 66
     1
 10
0.0
 20
0.0
 30
0.0
 70
     8
  0
VERTEX
  5
225
100
AcDbEntity
  8
LAYER2
  6
CONTINUOUS
 62
   250
100
AcDbVertex
100
AcDb3dPolylineVertex
 10
32.8348
 20
5.6752
 30
0.0
 70
    32
  0
VERTEX
  5
226
100
AcDbEntity
  8
LAYER2
  6
CONTINUOUS
 62
   250
100
AcDbVertex
100
AcDb3dPolylineVertex
 10
32.8348
 20
8.4939
 30
0.0
 70
    32
  0
SEQEND
  5
227
100
AcDbEntity
  8
LAYER2
 62
   250
  0
TEXT
  5
228
100
AcDbEntity
  8
LAYER2
 62
   250
100
AcDbText
 10
30.176
 20
7.1477
 30
0.0
 40
0.12
  1
#6 - 1301 Ketch Court
100
AcDbText
  0
TEXT
  5
229
100
AcDbEntity
  8
LAYER2
 62
   250
100
AcDbText
 10
30.176
 20
6.8658
 30
0.0
 40
0.12
  1
Coquitlam, B.C.
100
AcDbText
  0
TEXT
  5
22A
100
AcDbEntity
  8
LAYER2
 62
   250
100
AcDbText
 10
30.176
 20
6.584
 30
0.0
 40
0.12
  1
Phone:  (604) 527.1100
100
AcDbText
  0
TEXT
  5
22B
100
AcDbEntity
  8
LAYER2
 62
   250
100
AcDbText
 10
30.176
 20
6.3021
 30
0.0
 40
0.12
  1
Fax:    (604) 527.1110
100
AcDbText
  0
TEXT
  5
22C
100
AcDbEntity
  8
LAYER2
 62
   250
100
AcDbText
 10
30.1658
 20
6.025
 30
0.0
 40
0.12
  1
WEB: www.Tri-M.com
100
AcDbText
  0
TEXT
  5
22D
100
AcDbEntity
  8
LAYER2
 62
   250
100
AcDbText
 10
24.7728
 20
7.7298
 30
0.0
 40
0.1705
  1
Customer
 41
0.789341
 72
     5
 11
25.8046
 21
7.7298
 31
0.0
100
AcDbText
  0
TEXT
  5
22E
100
AcDbEntity
  8
LAYER2
 62
   250
100
AcDbText
 10
24.7728
 20
7.3364
 30
0.0
 40
0.1705
  1
Drawing #
 41
0.785557
 72
     5
 11
25.8443
 21
7.3364
 31
0.0
100
AcDbText
  0
TEXT
  5
22F
100
AcDbEntity
  8
LAYER2
 62
   250
100
AcDbText
 10
24.7728
 20
8.1231
 30
0.0
 40
0.1705
  1
Title
 41
0.753582
 72
     5
 11
25.2225
 21
8.1231
 31
0.0
100
AcDbText
  0
POLYLINE
  5
230
100
AcDbEntity
  8
LAYER2
  6
CONTINUOUS
 62
   250
100
AcDb3dPolyline
 66
     1
 10
0.0
 20
0.0
 30
0.0
 70
     8
  0
VERTEX
  5
231
100
AcDbEntity
  8
LAYER2
  6
CONTINUOUS
 62
   250
100
AcDbVertex
100
AcDb3dPolylineVertex
 10
29.8677
 20
5.6752
 30
0.0
 70
    32
  0
VERTEX
  5
232
100
AcDbEntity
  8
LAYER2
  6
CONTINUOUS
 62
   250
100
AcDbVertex
100
AcDb3dPolylineVertex
 10
32.8348
 20
5.6752
 30
0.0
 70
    32
  0
SEQEND
  5
233
100
AcDbEntity
  8
LAYER2
 62
   250
  0
POLYLINE
  5
234
100
AcDbEntity
  8
LAYER2
  6
CONTINUOUS
 62
   250
100
AcDb3dPolyline
 66
     1
 10
0.0
 20
0.0
 30
0.0
 70
     8
  0
VERTEX
  5
235
100
AcDbEntity
  8
LAYER2
  6
CONTINUOUS
 62
   250
100
AcDbVertex
100
AcDb3dPolylineVertex
 10
24.623
 20
5.6752
 30
0.0
 70
    32
  0
VERTEX
  5
236
100
AcDbEntity
  8
LAYER2
  6
CONTINUOUS
 62
   250
100
AcDbVertex
100
AcDb3dPolylineVertex
 10
18.8891
 20
5.6752
 30
0.0
 70
    32
  0
SEQEND
  5
237
100
AcDbEntity
  8
LAYER2
 62
   250
  0
POINT
  5
238
100
AcDbEntity
  8
LAYER2
100
AcDbPoint
 10
26.1702
 20
7.7298
 30
0.0
  0
POINT
  5
239
100
AcDbEntity
  8
LAYER2
100
AcDbPoint
 10
26.1702
 20
7.3364
 30
0.0
  0
POINT
  5
23A
100
AcDbEntity
  8
LAYER2
100
AcDbPoint
 10
26.1702
 20
6.9431
 30
0.0
  0
POINT
  5
23B
100
AcDbEntity
  8
LAYER2
100
AcDbPoint
 10
26.1702
 20
6.5497
 30
0.0
  0
POINT
  5
23C
100
AcDbEntity
  8
LAYER2
100
AcDbPoint
 10
26.1702
 20
6.1564
 30
0.0
  0
POINT
  5
23D
100
AcDbEntity
  8
LAYER2
100
AcDbPoint
 10
24.7728
 20
5.763
 30
0.0
  0
POINT
  5
23E
100
AcDbEntity
  8
LAYER2
100
AcDbPoint
 10
26.1702
 20
5.763
 30
0.0
  0
TEXT
  5
23F
100
AcDbEntity
  8
LAYER2
 62
   250
100
AcDbText
 10
24.7728
 20
6.5497
 30
0.0
 40
0.1705
  1
Date
 41
0.804266
 72
     5
 11
25.2756
 21
6.5497
 31
0.0
100
AcDbText
  0
TEXT
  5
240
100
AcDbEntity
  8
LAYER2
 62
   250
100
AcDbText
 10
24.7728
 20
6.1564
 30
0.0
 40
0.1705
  1
Drawn By
 41
0.789341
 72
     5
 11
25.8046
 21
6.1564
 31
0.0
100
AcDbText
  0
POLYLINE
  5
241
100
AcDbEntity
  8
LAYER2
  6
CONTINUOUS
 62
   250
100
AcDb3dPolyline
 66
     1
 10
0.0
 20
0.0
 30
0.0
 70
     8
  0
VERTEX
  5
242
100
AcDbEntity
  8
LAYER2
  6
CONTINUOUS
 62
   250
100
AcDbVertex
100
AcDb3dPolylineVertex
 10
29.8677
 20
5.6752
 30
0.0
 70
    32
  0
VERTEX
  5
243
100
AcDbEntity
  8
LAYER2
  6
CONTINUOUS
 62
   250
100
AcDbVertex
100
AcDb3dPolylineVertex
 10
29.8677
 20
8.4939
 30
0.0
 70
    32
  0
SEQEND
  5
244
100
AcDbEntity
  8
LAYER2
 62
   250
  0
POLYLINE
  5
245
100
AcDbEntity
  8
LAYER2
  6
CONTINUOUS
 62
   250
100
AcDb3dPolyline
 66
     1
 10
0.0
 20
0.0
 30
0.0
 70
     8
  0
VERTEX
  5
246
100
AcDbEntity
  8
LAYER2
  6
CONTINUOUS
 62
   250
100
AcDbVertex
100
AcDb3dPolylineVertex
 10
24.623
 20
8.4939
 30
0.0
 70
    32
  0
VERTEX
  5
247
100
AcDbEntity
  8
LAYER2
  6
CONTINUOUS
 62
   250
100
AcDbVertex
100
AcDb3dPolylineVertex
 10
24.623
 20
5.6752
 30
0.0
 70
    32
  0
SEQEND
  5
248
100
AcDbEntity
  8
LAYER2
 62
   250
  0
POLYLINE
  5
249
100
AcDbEntity
  8
LAYER2
  6
CONTINUOUS
 62
   250
100
AcDb3dPolyline
 66
     1
 10
0.0
 20
0.0
 30
0.0
 70
     8
  0
VERTEX
  5
24A
100
AcDbEntity
  8
LAYER2
  6
CONTINUOUS
 62
   250
100
AcDbVertex
100
AcDb3dPolylineVertex
 10
26.0039
 20
8.4939
 30
0.0
 70
    32
  0
VERTEX
  5
24B
100
AcDbEntity
  8
LAYER2
  6
CONTINUOUS
 62
   250
100
AcDbVertex
100
AcDb3dPolylineVertex
 10
26.0039
 20
5.6752
 30
0.0
 70
    32
  0
SEQEND
  5
24C
100
AcDbEntity
  8
LAYER2
 62
   250
  0
POLYLINE
  5
24D
100
AcDbEntity
  8
LAYER2
  6
CONTINUOUS
 62
   250
100
AcDb3dPolyline
 66
     1
 10
0.0
 20
0.0
 30
0.0
 70
     8
  0
VERTEX
  5
24E
100
AcDbEntity
  8
LAYER2
  6
CONTINUOUS
 62
   250
100
AcDbVertex
100
AcDb3dPolylineVertex
 10
32.8348
 20
8.4939
 30
0.0
 70
    32
  0
VERTEX
  5
24F
100
AcDbEntity
  8
LAYER2
  6
CONTINUOUS
 62
   250
100
AcDbVertex
100
AcDb3dPolylineVertex
 10
24.623
 20
8.4939
 30
0.0
 70
    32
  0
SEQEND
  5
250
100
AcDbEntity
  8
LAYER2
 62
   250
  0
POLYLINE
  5
251
100
AcDbEntity
  8
LAYER2
  6
CONTINUOUS
 62
   250
100
AcDb3dPolyline
 66
     1
 10
0.0
 20
0.0
 30
0.0
 70
     8
  0
VERTEX
  5
252
100
AcDbEntity
  8
LAYER2
  6
CONTINUOUS
 62
   250
100
AcDbVertex
100
AcDb3dPolylineVertex
 10
24.623
 20
6.0686
 30
0.0
 70
    32
  0
VERTEX
  5
253
100
AcDbEntity
  8
LAYER2
  6
CONTINUOUS
 62
   250
100
AcDbVertex
100
AcDb3dPolylineVertex
 10
24.623
 20
5.6752
 30
0.0
 70
    32
  0
SEQEND
  5
254
100
AcDbEntity
  8
LAYER2
 62
   250
  0
TEXT
  5
255
100
AcDbEntity
  8
LAYER2
 62
   250
100
AcDbText
 10
24.7728
 20
6.9431
 30
0.0
 40
0.1875
  1
WO #
 41
0.892533
 72
     5
 11
25.4422
 21
6.9431
 31
0.0
100
AcDbText
  0
TEXT
  5
256
100
AcDbEntity
  8
LAYER7
 62
   250
100
AcDbText
 10
18.9683
 20
5.7866
 30
0.0
 40
0.1705
  1
REV
 41
0.956989
 72
     5
 11
19.4578
 21
5.7866
 31
0.0
100
AcDbText
  0
TEXT
  5
257
100
AcDbEntity
  8
LAYER7
 62
   250
100
AcDbText
 10
20.9919
 20
5.7866
 30
0.0
 40
0.1705
  1
Remarks
 41
0.837801
 72
     5
 11
21.9442
 21
5.7866
 31
0.0
100
AcDbText
  0
TEXT
  5
258
100
AcDbEntity
  8
LAYER7
 62
   250
100
AcDbText
 10
23.8484
 20
5.7866
 30
0.0
 40
0.1705
  1
Date
 41
0.804266
 72
     5
 11
24.3512
 21
5.7866
 31
0.0
100
AcDbText
  0
POLYLINE
  5
25D
100
AcDbEntity
  8
LAYER7
  6
CONTINUOUS
 62
   250
100
AcDb3dPolyline
 66
     1
 10
0.0
 20
0.0
 30
0.0
 70
     8
  0
VERTEX
  5
25E
100
AcDbEntity
  8
LAYER7
  6
CONTINUOUS
 62
   250
100
AcDbVertex
100
AcDb3dPolylineVertex
 10
24.623
 20
6.0686
 30
0.0
 70
    32
  0
VERTEX
  5
25F
100
AcDbEntity
  8
LAYER7
  6
CONTINUOUS
 62
   250
100
AcDbVertex
100
AcDb3dPolylineVertex
 10
18.8891
 20
6.0686
 30
0.0
 70
    32
  0
SEQEND
  5
260
100
AcDbEntity
  8
LAYER7
 62
   250
  0
POLYLINE
  5
261
100
AcDbEntity
  8
LAYER2
  6
CONTINUOUS
 62
   250
100
AcDb3dPolyline
 66
     1
 10
0.0
 20
0.0
 30
0.0
 70
     8
  0
VERTEX
  5
262
100
AcDbEntity
  8
LAYER2
  6
CONTINUOUS
 62
   250
100
AcDbVertex
100
AcDb3dPolylineVertex
 10
19.5447
 20
6.0686
 30
0.0
 70
    32
  0
VERTEX
  5
263
100
AcDbEntity
  8
LAYER2
  6
CONTINUOUS
 62
   250
100
AcDbVertex
100
AcDb3dPolylineVertex
 10
19.5447
 20
5.6752
 30
0.0
 70
    32
  0
SEQEND
  5
264
100
AcDbEntity
  8
LAYER2
 62
   250
  0
POLYLINE
  5
265
100
AcDbEntity
  8
LAYER2
  6
CONTINUOUS
 62
   250
100
AcDb3dPolyline
 66
     1
 10
0.0
 20
0.0
 30
0.0
 70
     8
  0
VERTEX
  5
266
100
AcDbEntity
  8
LAYER2
  6
CONTINUOUS
 62
   250
100
AcDbVertex
100
AcDb3dPolylineVertex
 10
23.4783
 20
6.0686
 30
0.0
 70
    32
  0
VERTEX
  5
267
100
AcDbEntity
  8
LAYER2
  6
CONTINUOUS
 62
   250
100
AcDbVertex
100
AcDb3dPolylineVertex
 10
23.4783
 20
5.6752
 30
0.0
 70
    32
  0
SEQEND
  5
268
100
AcDbEntity
  8
LAYER2
 62
   250
  0
POLYLINE
  5
26D
100
AcDbEntity
  8
LAYER2
  6
CONTINUOUS
 62
   250
100
AcDb3dPolyline
 66
     1
 10
0.0
 20
0.0
 30
0.0
 70
     8
  0
VERTEX
  5
26E
100
AcDbEntity
  8
LAYER2
  6
CONTINUOUS
 62
   250
100
AcDbVertex
100
AcDb3dPolylineVertex
 10
18.8891
 20
6.0686
 30
0.0
 70
    32
  0
VERTEX
  5
26F
100
AcDbEntity
  8
LAYER2
  6
CONTINUOUS
 62
   250
100
AcDbVertex
100
AcDb3dPolylineVertex
 10
18.8891
 20
5.6752
 30
0.0
 70
    32
  0
SEQEND
  5
270
100
AcDbEntity
  8
LAYER2
 62
   250
  0
POINT
  5
271
100
AcDbEntity
  8
LAYER7
100
AcDbPoint
 10
19.0221
 20
6.9708
 30
0.0
  0
POINT
  5
272
100
AcDbEntity
  8
LAYER7
100
AcDbPoint
 10
19.0221
 20
6.5775
 30
0.0
  0
POINT
  5
273
100
AcDbEntity
  8
LAYER7
100
AcDbPoint
 10
19.0221
 20
6.1841
 30
0.0
  0
POINT
  5
274
100
AcDbEntity
  8
LAYER7
100
AcDbPoint
 10
19.6822
 20
6.9708
 30
0.0
  0
POINT
  5
275
100
AcDbEntity
  8
LAYER7
100
AcDbPoint
 10
19.6822
 20
6.5775
 30
0.0
  0
POINT
  5
276
100
AcDbEntity
  8
LAYER7
100
AcDbPoint
 10
19.6822
 20
6.1841
 30
0.0
  0
POINT
  5
277
100
AcDbEntity
  8
LAYER7
100
AcDbPoint
 10
23.5792
 20
6.9708
 30
0.0
  0
POINT
  5
278
100
AcDbEntity
  8
LAYER7
100
AcDbPoint
 10
23.5792
 20
6.5775
 30
0.0
  0
POINT
  5
279
100
AcDbEntity
  8
LAYER7
100
AcDbPoint
 10
23.5792
 20
6.1841
 30
0.0
  0
POLYLINE
  5
282
100
AcDbEntity
  8
LAYER2
  6
CONTINUOUS
 62
   250
100
AcDb3dPolyline
 66
     1
 10
0.0
 20
0.0
 30
0.0
 70
     8
  0
VERTEX
  5
283
100
AcDbEntity
  8
LAYER2
  6
CONTINUOUS
 62
   250
100
AcDbVertex
100
AcDb3dPolylineVertex
 10
32.8348
 20
17.4996
 30
0.0
 70
    32
  0
VERTEX
  5
284
100
AcDbEntity
  8
LAYER2
  6
CONTINUOUS
 62
   250
100
AcDbVertex
100
AcDb3dPolylineVertex
 10
32.8348
 20
5.6752
 30
0.0
 70
    32
  0
SEQEND
  5
285
100
AcDbEntity
  8
LAYER2
 62
   250
  0
POLYLINE
  5
286
100
AcDbEntity
  8
LAYER2
  6
CONTINUOUS
 62
   250
100
AcDb3dPolyline
 66
     1
 10
0.0
 20
0.0
 30
0.0
 70
     8
  0
VERTEX
  5
287
100
AcDbEntity
  8
LAYER2
  6
CONTINUOUS
 62
   250
100
AcDbVertex
100
AcDb3dPolylineVertex
 10
32.8348
 20
5.6752
 30
0.0
 70
    32
  0
VERTEX
  5
288
100
AcDbEntity
  8
LAYER2
  6
CONTINUOUS
 62
   250
100
AcDbVertex
100
AcDb3dPolylineVertex
 10
16.7715
 20
5.6752
 30
0.0
 70
    32
  0
SEQEND
  5
289
100
AcDbEntity
  8
LAYER2
 62
   250
  0
POLYLINE
  5
28A
100
AcDbEntity
  8
LAYER2
  6
CONTINUOUS
 62
   250
100
AcDb3dPolyline
 66
     1
 10
0.0
 20
0.0
 30
0.0
 70
     8
  0
VERTEX
  5
28B
100
AcDbEntity
  8
LAYER2
  6
CONTINUOUS
 62
   250
100
AcDbVertex
100
AcDb3dPolylineVertex
 10
16.7715
 20
5.6752
 30
0.0
 70
    32
  0
VERTEX
  5
28C
100
AcDbEntity
  8
LAYER2
  6
CONTINUOUS
 62
   250
100
AcDbVertex
100
AcDb3dPolylineVertex
 10
15.8226
 20
5.6752
 30
0.0
 70
    32
  0
VERTEX
  5
28D
100
AcDbEntity
  8
LAYER2
  6
CONTINUOUS
 62
   250
100
AcDbVertex
100
AcDb3dPolylineVertex
 10
15.8226
 20
17.4996
 30
0.0
 70
    32
  0
SEQEND
  5
28E
100
AcDbEntity
  8
LAYER2
 62
   250
  0
POLYLINE
  5
28F
100
AcDbEntity
  8
LAYER1
  6
CONTINUOUS
 62
   250
100
AcDb3dPolyline
 66
     1
 10
0.0
 20
0.0
 30
0.0
 70
     8
  0
VERTEX
  5
290
100
AcDbEntity
  8
LAYER1
  6
CONTINUOUS
 62
   250
100
AcDbVertex
100
AcDb3dPolylineVertex
 10
15.8226
 20
17.4996
 30
0.0
 70
    32
  0
VERTEX
  5
291
100
AcDbEntity
  8
LAYER1
  6
CONTINUOUS
 62
   250
100
AcDbVertex
100
AcDb3dPolylineVertex
 10
32.8348
 20
17.4996
 30
0.0
 70
    32
  0
SEQEND
  5
292
100
AcDbEntity
  8
LAYER1
 62
   250
  0
CIRCLE
  5
293
100
AcDbEntity
  8
LAYER1
  6
CONTINUOUS
 62
   250
100
AcDbCircle
 10
25.0532
 20
16.0554
 30
0.0
 40
0.0855
  0
CIRCLE
  5
294
100
AcDbEntity
  8
LAYER1
  6
CONTINUOUS
 62
   250
100
AcDbCircle
 10
22.8282
 20
16.0554
 30
0.0
 40
0.0855
  0
CIRCLE
  5
295
100
AcDbEntity
  8
LAYER1
  6
CONTINUOUS
 62
   250
100
AcDbCircle
 10
25.0532
 20
10.9054
 30
0.0
 40
0.0855
  0
CIRCLE
  5
296
100
AcDbEntity
  8
LAYER1
  6
CONTINUOUS
 62
   250
100
AcDbCircle
 10
22.8282
 20
10.9054
 30
0.0
 40
0.0855
  0
CIRCLE
  5
297
100
AcDbEntity
  8
LAYER1
  6
CONTINUOUS
 62
   250
100
AcDbCircle
 10
26.5907
 20
14.6004
 30
0.0
 40
0.0855
  0
CIRCLE
  5
298
100
AcDbEntity
  8
LAYER1
  6
CONTINUOUS
 62
   250
100
AcDbCircle
 10
26.5907
 20
12.3604
 30
0.0
 40
0.0855
  0
ARC
  5
299
100
AcDbEntity
  8
LAYER1
  6
CONTINUOUS
 62
   250
100
AcDbCircle
 10
26.5657
 20
14.6004
 30
0.0
 40
0.1875
100
AcDbArc
 50
270.0
 51
90.0
  0
ARC
  5
29A
100
AcDbEntity
  8
LAYER1
  6
CONTINUOUS
 62
   250
100
AcDbCircle
 10
26.5657
 20
12.3604
 30
0.0
 40
0.1875
100
AcDbArc
 50
270.0
 51
90.0
  0
CIRCLE
  5
29B
100
AcDbEntity
  8
LAYER1
  6
CONTINUOUS
 62
   250
100
AcDbCircle
 10
21.2907
 20
14.6004
 30
0.0
 40
0.0855
  0
CIRCLE
  5
29C
100
AcDbEntity
  8
LAYER1
  6
CONTINUOUS
 62
   250
100
AcDbCircle
 10
21.2907
 20
12.3604
 30
0.0
 40
0.0855
  0
ARC
  5
29D
100
AcDbEntity
  8
LAYER1
  6
CONTINUOUS
 62
   250
100
AcDbCircle
 10
21.3157
 20
14.6004
 30
0.0
 40
0.1875
100
AcDbArc
 50
90.0
 51
270.0
  0
ARC
  5
29E
100
AcDbEntity
  8
LAYER1
  6
CONTINUOUS
 62
   250
100
AcDbCircle
 10
21.3157
 20
12.3604
 30
0.0
 40
0.1875
100
AcDbArc
 50
90.0
 51
270.0
  0
TEXT
  5
29F
100
AcDbEntity
  8
LAYER4
 62
   250
100
AcDbText
 10
16.6351
 20
12.518
 30
0.0
 40
0.15
  1
TOLERANCE ON ALL DIMENSIONS
 41
0.942564
 72
     5
 11
20.3111
 21
12.518
 31
0.0
100
AcDbText
  0
TEXT
  5
2A0
100
AcDbEntity
  8
LAYER4
 62
   250
100
AcDbText
 10
17.8021
 20
12.1315
 30
0.0
 40
0.15
  1
+0.005
 41
0.943259
 72
     5
 11
18.4388
 21
12.1315
 31
0.0
100
AcDbText
  0
TEXT
  5
2A1
100
AcDbEntity
  8
LAYER4
 62
   250
100
AcDbText
 10
17.8021
 20
11.8315
 30
0.0
 40
0.15
  1
-0.005
 41
0.865778
 72
     5
 11
18.3865
 21
11.8315
 31
0.0
100
AcDbText
  0
TEXT
  5
2A2
100
AcDbEntity
  8
LAYER4
 62
   250
100
AcDbText
 10
26.2737
 20
8.0974
 30
0.0
 40
0.15
  1
CT104 Blank Endcap
100
AcDbText
  0
TEXT
  5
2A3
100
AcDbEntity
  8
LAYER4
 62
   250
100
AcDbText
 10
30.137853
 20
8.057025
 30
0.0
 40
0.15
  1
TRI-M ENGINEERING
100
AcDbText
  0
TEXT
  5
2A4
100
AcDbEntity
  8
LAYER4
 62
   250
100
AcDbText
 10
26.2975
 20
6.1499
 30
0.0
 40
0.15
  1
jef
100
AcDbText
  0
TEXT
  5
2A5
100
AcDbEntity
  8
LAYER4
 62
   250
100
AcDbText
 10
26.3498
 20
7.3166
 30
0.0
 40
0.15
  1
CT104-EC00
 41
1.147774
 72
     5
 11
27.8706
 21
7.3166
 31
0.0
100
AcDbText
  0
POLYLINE
  5
2A6
100
AcDbEntity
  8
LAYER1
  6
CONTINUOUS
 62
   250
100
AcDb3dPolyline
 66
     1
 10
0.0
 20
0.0
 30
0.0
 70
     8
  0
VERTEX
  5
2A7
100
AcDbEntity
  8
LAYER1
  6
CONTINUOUS
 62
   250
100
AcDbVertex
100
AcDb3dPolylineVertex
 10
21.3157
 20
14.7879
 30
0.0
 70
    32
  0
VERTEX
  5
2A8
100
AcDbEntity
  8
LAYER1
  6
CONTINUOUS
 62
   250
100
AcDbVertex
100
AcDb3dPolylineVertex
 10
21.3707
 20
14.7879
 30
0.0
 70
    32
  0
SEQEND
  5
2A9
100
AcDbEntity
  8
LAYER1
 62
   250
  0
POLYLINE
  5
2AA
100
AcDbEntity
  8
LAYER1
  6
CONTINUOUS
 62
   250
100
AcDb3dPolyline
 66
     1
 10
0.0
 20
0.0
 30
0.0
 70
     8
  0
VERTEX
  5
2AB
100
AcDbEntity
  8
LAYER1
  6
CONTINUOUS
 62
   250
100
AcDbVertex
100
AcDb3dPolylineVertex
 10
21.3157
 20
14.4129
 30
0.0
 70
    32
  0
VERTEX
  5
2AC
100
AcDbEntity
  8
LAYER1
  6
CONTINUOUS
 62
   250
100
AcDbVertex
100
AcDb3dPolylineVertex
 10
21.3707
 20
14.4129
 30
0.0
 70
    32
  0
SEQEND
  5
2AD
100
AcDbEntity
  8
LAYER1
 62
   250
  0
POLYLINE
  5
2AE
100
AcDbEntity
  8
LAYER1
  6
CONTINUOUS
 62
   250
100
AcDb3dPolyline
 66
     1
 10
0.0
 20
0.0
 30
0.0
 70
     8
  0
VERTEX
  5
2AF
100
AcDbEntity
  8
LAYER1
  6
CONTINUOUS
 62
   250
100
AcDbVertex
100
AcDb3dPolylineVertex
 10
21.3157
 20
12.5479
 30
0.0
 70
    32
  0
VERTEX
  5
2B0
100
AcDbEntity
  8
LAYER1
  6
CONTINUOUS
 62
   250
100
AcDbVertex
100
AcDb3dPolylineVertex
 10
21.3707
 20
12.5479
 30
0.0
 70
    32
  0
SEQEND
  5
2B1
100
AcDbEntity
  8
LAYER1
 62
   250
  0
POLYLINE
  5
2B2
100
AcDbEntity
  8
LAYER1
  6
CONTINUOUS
 62
   250
100
AcDb3dPolyline
 66
     1
 10
0.0
 20
0.0
 30
0.0
 70
     8
  0
VERTEX
  5
2B3
100
AcDbEntity
  8
LAYER1
  6
CONTINUOUS
 62
   250
100
AcDbVertex
100
AcDb3dPolylineVertex
 10
21.3157
 20
12.1729
 30
0.0
 70
    32
  0
VERTEX
  5
2B4
100
AcDbEntity
  8
LAYER1
  6
CONTINUOUS
 62
   250
100
AcDbVertex
100
AcDb3dPolylineVertex
 10
21.3707
 20
12.1729
 30
0.0
 70
    32
  0
SEQEND
  5
2B5
100
AcDbEntity
  8
LAYER1
 62
   250
  0
POLYLINE
  5
2B6
100
AcDbEntity
  8
LAYER1
  6
CONTINUOUS
 62
   250
100
AcDb3dPolyline
 66
     1
 10
0.0
 20
0.0
 30
0.0
 70
     8
  0
VERTEX
  5
2B7
100
AcDbEntity
  8
LAYER1
  6
CONTINUOUS
 62
   250
100
AcDbVertex
100
AcDb3dPolylineVertex
 10
26.5107
 20
14.7879
 30
0.0
 70
    32
  0
VERTEX
  5
2B8
100
AcDbEntity
  8
LAYER1
  6
CONTINUOUS
 62
   250
100
AcDbVertex
100
AcDb3dPolylineVertex
 10
26.5657
 20
14.7879
 30
0.0
 70
    32
  0
SEQEND
  5
2B9
100
AcDbEntity
  8
LAYER1
 62
   250
  0
POLYLINE
  5
2BA
100
AcDbEntity
  8
LAYER1
  6
CONTINUOUS
 62
   250
100
AcDb3dPolyline
 66
     1
 10
0.0
 20
0.0
 30
0.0
 70
     8
  0
VERTEX
  5
2BB
100
AcDbEntity
  8
LAYER1
  6
CONTINUOUS
 62
   250
100
AcDbVertex
100
AcDb3dPolylineVertex
 10
26.5107
 20
14.4129
 30
0.0
 70
    32
  0
VERTEX
  5
2BC
100
AcDbEntity
  8
LAYER1
  6
CONTINUOUS
 62
   250
100
AcDbVertex
100
AcDb3dPolylineVertex
 10
26.5657
 20
14.4129
 30
0.0
 70
    32
  0
SEQEND
  5
2BD
100
AcDbEntity
  8
LAYER1
 62
   250
  0
POLYLINE
  5
2BE
100
AcDbEntity
  8
LAYER1
  6
CONTINUOUS
 62
   250
100
AcDb3dPolyline
 66
     1
 10
0.0
 20
0.0
 30
0.0
 70
     8
  0
VERTEX
  5
2BF
100
AcDbEntity
  8
LAYER1
  6
CONTINUOUS
 62
   250
100
AcDbVertex
100
AcDb3dPolylineVertex
 10
26.5107
 20
12.1729
 30
0.0
 70
    32
  0
VERTEX
  5
2C0
100
AcDbEntity
  8
LAYER1
  6
CONTINUOUS
 62
   250
100
AcDbVertex
100
AcDb3dPolylineVertex
 10
26.5657
 20
12.1729
 30
0.0
 70
    32
  0
SEQEND
  5
2C1
100
AcDbEntity
  8
LAYER1
 62
   250
  0
POLYLINE
  5
2C2
100
AcDbEntity
  8
LAYER1
  6
CONTINUOUS
 62
   250
100
AcDb3dPolyline
 66
     1
 10
0.0
 20
0.0
 30
0.0
 70
     8
  0
VERTEX
  5
2C3
100
AcDbEntity
  8
LAYER1
  6
CONTINUOUS
 62
   250
100
AcDbVertex
100
AcDb3dPolylineVertex
 10
26.5107
 20
12.5479
 30
0.0
 70
    32
  0
VERTEX
  5
2C4
100
AcDbEntity
  8
LAYER1
  6
CONTINUOUS
 62
   250
100
AcDbVertex
100
AcDb3dPolylineVertex
 10
26.5657
 20
12.5479
 30
0.0
 70
    32
  0
SEQEND
  5
2C5
100
AcDbEntity
  8
LAYER1
 62
   250
  0
ARC
  5
2C6
100
AcDbEntity
  8
LAYER1
  6
CONTINUOUS
 62
   250
100
AcDbCircle
 10
23.9407
 20
13.4804
 30
0.0
 40
3.23
100
AcDbArc
 50
123.2081
 51
142.7182
  0
ARC
  5
2C7
100
AcDbEntity
  8
LAYER1
  6
CONTINUOUS
 62
   250
100
AcDbCircle
 10
23.9407
 20
13.4804
 30
0.0
 40
3.23
100
AcDbArc
 50
37.2818
 51
56.7919
  0
ARC
  5
2C8
100
AcDbEntity
  8
LAYER1
  6
CONTINUOUS
 62
   250
100
AcDbCircle
 10
23.9407
 20
13.4804
 30
0.0
 40
3.23
100
AcDbArc
 50
303.2081
 51
322.7182
  0
ARC
  5
2C9
100
AcDbEntity
  8
LAYER1
  6
CONTINUOUS
 62
   250
100
AcDbCircle
 10
23.9407
 20
13.4804
 30
0.0
 40
3.23
100
AcDbArc
 50
217.2818
 51
236.7919
  0
POLYLINE
  5
2CA
100
AcDbEntity
  8
LAYER1
  6
CONTINUOUS
 62
   250
100
AcDb3dPolyline
 66
     1
 10
0.0
 20
0.0
 30
0.0
 70
     8
  0
VERTEX
  5
2CB
100
AcDbEntity
  8
LAYER1
  6
CONTINUOUS
 62
   250
100
AcDbVertex
100
AcDb3dPolylineVertex
 10
21.3707
 20
14.7879
 30
0.0
 70
    32
  0
VERTEX
  5
2CC
100
AcDbEntity
  8
LAYER1
  6
CONTINUOUS
 62
   250
100
AcDbVertex
100
AcDb3dPolylineVertex
 10
21.3707
 20
15.437
 30
0.0
 70
    32
  0
SEQEND
  5
2CD
100
AcDbEntity
  8
LAYER1
 62
   250
  0
POLYLINE
  5
2CE
100
AcDbEntity
  8
LAYER1
  6
CONTINUOUS
 62
   250
100
AcDb3dPolyline
 66
     1
 10
0.0
 20
0.0
 30
0.0
 70
     8
  0
VERTEX
  5
2CF
100
AcDbEntity
  8
LAYER1
  6
CONTINUOUS
 62
   250
100
AcDbVertex
100
AcDb3dPolylineVertex
 10
22.1717
 20
16.1829
 30
0.0
 70
    32
  0
VERTEX
  5
2D0
100
AcDbEntity
  8
LAYER1
  6
CONTINUOUS
 62
   250
100
AcDbVertex
100
AcDb3dPolylineVertex
 10
25.7112
 20
16.1879
 30
0.0
 70
    32
  0
SEQEND
  5
2D1
100
AcDbEntity
  8
LAYER1
 62
   250
  0
POLYLINE
  5
2D2
100
AcDbEntity
  8
LAYER1
  6
CONTINUOUS
 62
   250
100
AcDb3dPolyline
 66
     1
 10
0.0
 20
0.0
 30
0.0
 70
     8
  0
VERTEX
  5
2D3
100
AcDbEntity
  8
LAYER1
  6
CONTINUOUS
 62
   250
100
AcDbVertex
100
AcDb3dPolylineVertex
 10
21.3707
 20
14.4129
 30
0.0
 70
    32
  0
VERTEX
  5
2D4
100
AcDbEntity
  8
LAYER1
  6
CONTINUOUS
 62
   250
100
AcDbVertex
100
AcDb3dPolylineVertex
 10
21.3707
 20
12.5479
 30
0.0
 70
    32
  0
SEQEND
  5
2D5
100
AcDbEntity
  8
LAYER1
 62
   250
  0
POLYLINE
  5
2D6
100
AcDbEntity
  8
LAYER1
  6
CONTINUOUS
 62
   250
100
AcDb3dPolyline
 66
     1
 10
0.0
 20
0.0
 30
0.0
 70
     8
  0
VERTEX
  5
2D7
100
AcDbEntity
  8
LAYER1
  6
CONTINUOUS
 62
   250
100
AcDbVertex
100
AcDb3dPolylineVertex
 10
26.5107
 20
14.4129
 30
0.0
 70
    32
  0
VERTEX
  5
2D8
100
AcDbEntity
  8
LAYER1
  6
CONTINUOUS
 62
   250
100
AcDbVertex
100
AcDb3dPolylineVertex
 10
26.5107
 20
12.5479
 30
0.0
 70
    32
  0
SEQEND
  5
2D9
100
AcDbEntity
  8
LAYER1
 62
   250
  0
POLYLINE
  5
2DA
100
AcDbEntity
  8
LAYER1
  6
CONTINUOUS
 62
   250
100
AcDb3dPolyline
 66
     1
 10
0.0
 20
0.0
 30
0.0
 70
     8
  0
VERTEX
  5
2DB
100
AcDbEntity
  8
LAYER1
  6
CONTINUOUS
 62
   250
100
AcDbVertex
100
AcDb3dPolylineVertex
 10
26.5107
 20
15.437
 30
0.0
 70
    32
  0
VERTEX
  5
2DC
100
AcDbEntity
  8
LAYER1
  6
CONTINUOUS
 62
   250
100
AcDbVertex
100
AcDb3dPolylineVertex
 10
26.5107
 20
14.7879
 30
0.0
 70
    32
  0
SEQEND
  5
2DD
100
AcDbEntity
  8
LAYER1
 62
   250
  0
POLYLINE
  5
2DE
100
AcDbEntity
  8
LAYER1
  6
CONTINUOUS
 62
   250
100
AcDb3dPolyline
 66
     1
 10
0.0
 20
0.0
 30
0.0
 70
     8
  0
VERTEX
  5
2DF
100
AcDbEntity
  8
LAYER1
  6
CONTINUOUS
 62
   250
100
AcDbVertex
100
AcDb3dPolylineVertex
 10
21.3707
 20
12.1729
 30
0.0
 70
    32
  0
VERTEX
  5
2E0
100
AcDbEntity
  8
LAYER1
  6
CONTINUOUS
 62
   250
100
AcDbVertex
100
AcDb3dPolylineVertex
 10
21.3707
 20
11.5239
 30
0.0
 70
    32
  0
SEQEND
  5
2E1
100
AcDbEntity
  8
LAYER1
 62
   250
  0
POLYLINE
  5
2E2
100
AcDbEntity
  8
LAYER1
  6
CONTINUOUS
 62
   250
100
AcDb3dPolyline
 66
     1
 10
0.0
 20
0.0
 30
0.0
 70
     8
  0
VERTEX
  5
2E3
100
AcDbEntity
  8
LAYER1
  6
CONTINUOUS
 62
   250
100
AcDbVertex
100
AcDb3dPolylineVertex
 10
22.1717
 20
10.7779
 30
0.0
 70
    32
  0
VERTEX
  5
2E4
100
AcDbEntity
  8
LAYER1
  6
CONTINUOUS
 62
   250
100
AcDbVertex
100
AcDb3dPolylineVertex
 10
25.7112
 20
10.7729
 30
0.0
 70
    32
  0
SEQEND
  5
2E5
100
AcDbEntity
  8
LAYER1
 62
   250
  0
POLYLINE
  5
2E6
100
AcDbEntity
  8
LAYER1
  6
CONTINUOUS
 62
   250
100
AcDb3dPolyline
 66
     1
 10
0.0
 20
0.0
 30
0.0
 70
     8
  0
VERTEX
  5
2E7
100
AcDbEntity
  8
LAYER1
  6
CONTINUOUS
 62
   250
100
AcDbVertex
100
AcDb3dPolylineVertex
 10
26.5107
 20
11.5239
 30
0.0
 70
    32
  0
VERTEX
  5
2E8
100
AcDbEntity
  8
LAYER1
  6
CONTINUOUS
 62
   250
100
AcDbVertex
100
AcDb3dPolylineVertex
 10
26.5107
 20
12.1729
 30
0.0
 70
    32
  0
SEQEND
  5
2E9
100
AcDbEntity
  8
LAYER1
 62
   250
  0
TEXT
  5
2EC
100
AcDbEntity
  8
LAYER4
 62
   250
100
AcDbText
 10
21.9695
 20
9.027
 30
0.0
 40
0.15
  1
1500 PCS 1/16 ALUM. 5.625 X 5.405
 41
0.795886
 72
     5
 11
25.4515
 21
9.027
 31
0.0
100
AcDbText
  0
TEXT
  5
2ED
100
AcDbEntity
  8
LAYER4
 62
   250
100
AcDbText
 10
26.3643
 20
6.4985
 30
0.0
 40
0.15
  1
06/1/99
100
AcDbText
  0
POLYLINE
  5
2EE
100
AcDbEntity
  8
LAYER3
  6
CONTINUOUS
 62
   250
100
AcDb3dPolyline
 66
     1
 10
0.0
 20
0.0
 30
0.0
 70
     8
  0
VERTEX
  5
2EF
100
AcDbEntity
  8
LAYER3
  6
CONTINUOUS
 62
   250
100
AcDbVertex
100
AcDb3dPolylineVertex
 10
22.8282
 20
16.2554
 30
0.0
 70
    32
  0
VERTEX
  5
2F0
100
AcDbEntity
  8
LAYER3
  6
CONTINUOUS
 62
   250
100
AcDbVertex
100
AcDb3dPolylineVertex
 10
22.8282
 20
16.6371
 30
0.0
 70
    32
  0
SEQEND
  5
2F1
100
AcDbEntity
  8
LAYER3
 62
   250
  0
POLYLINE
  5
2F2
100
AcDbEntity
  8
LAYER3
  6
CONTINUOUS
 62
   250
100
AcDb3dPolyline
 66
     1
 10
0.0
 20
0.0
 30
0.0
 70
     8
  0
VERTEX
  5
2F3
100
AcDbEntity
  8
LAYER3
  6
CONTINUOUS
 62
   250
100
AcDbVertex
100
AcDb3dPolylineVertex
 10
25.0532
 20
16.2554
 30
0.0
 70
    32
  0
VERTEX
  5
2F4
100
AcDbEntity
  8
LAYER3
  6
CONTINUOUS
 62
   250
100
AcDbVertex
100
AcDb3dPolylineVertex
 10
25.0532
 20
16.6371
 30
0.0
 70
    32
  0
SEQEND
  5
2F5
100
AcDbEntity
  8
LAYER3
 62
   250
  0
POLYLINE
  5
2F6
100
AcDbEntity
  8
LAYER3
  6
PHANTOM
 62
   250
100
AcDb3dPolyline
 66
     1
 10
0.0
 20
0.0
 30
0.0
 70
     8
  0
VERTEX
  5
2F7
100
AcDbEntity
  8
LAYER3
  6
PHANTOM
 62
   250
100
AcDbVertex
100
AcDb3dPolylineVertex
 10
23.3906
 20
16.5371
 30
0.0
 70
    32
  0
VERTEX
  5
2F8
100
AcDbEntity
  8
LAYER3
  6
PHANTOM
 62
   250
100
AcDbVertex
100
AcDb3dPolylineVertex
 10
22.8282
 20
16.5371
 30
0.0
 70
    32
  0
SEQEND
  5
2F9
100
AcDbEntity
  8
LAYER3
 62
   250
  0
POLYLINE
  5
2FA
100
AcDbEntity
  8
LAYER3
  6
PHANTOM
 62
   250
100
AcDb3dPolyline
 66
     1
 10
0.0
 20
0.0
 30
0.0
 70
     8
  0
VERTEX
  5
2FB
100
AcDbEntity
  8
LAYER3
  6
PHANTOM
 62
   250
100
AcDbVertex
100
AcDb3dPolylineVertex
 10
24.4907
 20
16.5371
 30
0.0
 70
    32
  0
VERTEX
  5
2FC
100
AcDbEntity
  8
LAYER3
  6
PHANTOM
 62
   250
100
AcDbVertex
100
AcDb3dPolylineVertex
 10
25.0532
 20
16.5371
 30
0.0
 70
    32
  0
SEQEND
  5
2FD
100
AcDbEntity
  8
LAYER3
 62
   250
  0
TEXT
  5
2FE
100
AcDbEntity
  8
LAYER3
 62
   250
100
AcDbText
 10
23.5858
 20
16.4371
 30
0.0
 40
0.2
  1
2.225
 41
0.887125
 72
     5
 11
24.2955
 21
16.4371
 31
0.0
100
AcDbText
  0
POLYLINE
  5
2FF
100
AcDbEntity
  8
LAYER3
  6
CONTINUOUS
 62
   250
100
AcDb3dPolyline
 66
     1
 10
0.0
 20
0.0
 30
0.0
 70
     8
  0
VERTEX
  5
300
100
AcDbEntity
  8
LAYER3
  6
CONTINUOUS
 62
   250
100
AcDbVertex
100
AcDb3dPolylineVertex
 10
21.3157
 20
14.8004
 30
0.0
 70
    32
  0
VERTEX
  5
301
100
AcDbEntity
  8
LAYER3
  6
CONTINUOUS
 62
   250
100
AcDbVertex
100
AcDb3dPolylineVertex
 10
21.3157
 20
17.0205
 30
0.0
 70
    32
  0
SEQEND
  5
302
100
AcDbEntity
  8
LAYER3
 62
   250
  0
POLYLINE
  5
303
100
AcDbEntity
  8
LAYER3
  6
CONTINUOUS
 62
   250
100
AcDb3dPolyline
 66
     1
 10
0.0
 20
0.0
 30
0.0
 70
     8
  0
VERTEX
  5
304
100
AcDbEntity
  8
LAYER3
  6
CONTINUOUS
 62
   250
100
AcDbVertex
100
AcDb3dPolylineVertex
 10
26.5657
 20
14.8004
 30
0.0
 70
    32
  0
VERTEX
  5
305
100
AcDbEntity
  8
LAYER3
  6
CONTINUOUS
 62
   250
100
AcDbVertex
100
AcDb3dPolylineVertex
 10
26.5657
 20
17.0205
 30
0.0
 70
    32
  0
SEQEND
  5
306
100
AcDbEntity
  8
LAYER3
 62
   250
  0
POLYLINE
  5
307
100
AcDbEntity
  8
LAYER3
  6
PHANTOM
 62
   250
100
AcDb3dPolyline
 66
     1
 10
0.0
 20
0.0
 30
0.0
 70
     8
  0
VERTEX
  5
308
100
AcDbEntity
  8
LAYER3
  6
PHANTOM
 62
   250
100
AcDbVertex
100
AcDb3dPolylineVertex
 10
23.3906
 20
16.9205
 30
0.0
 70
    32
  0
VERTEX
  5
309
100
AcDbEntity
  8
LAYER3
  6
PHANTOM
 62
   250
100
AcDbVertex
100
AcDb3dPolylineVertex
 10
21.3157
 20
16.9205
 30
0.0
 70
    32
  0
SEQEND
  5
30A
100
AcDbEntity
  8
LAYER3
 62
   250
  0
POLYLINE
  5
30B
100
AcDbEntity
  8
LAYER3
  6
PHANTOM
 62
   250
100
AcDb3dPolyline
 66
     1
 10
0.0
 20
0.0
 30
0.0
 70
     8
  0
VERTEX
  5
30C
100
AcDbEntity
  8
LAYER3
  6
PHANTOM
 62
   250
100
AcDbVertex
100
AcDb3dPolylineVertex
 10
24.4907
 20
16.9205
 30
0.0
 70
    32
  0
VERTEX
  5
30D
100
AcDbEntity
  8
LAYER3
  6
PHANTOM
 62
   250
100
AcDbVertex
100
AcDb3dPolylineVertex
 10
26.5657
 20
16.9205
 30
0.0
 70
    32
  0
SEQEND
  5
30E
100
AcDbEntity
  8
LAYER3
 62
   250
  0
TEXT
  5
30F
100
AcDbEntity
  8
LAYER3
 62
   250
100
AcDbText
 10
23.5858
 20
16.8205
 30
0.0
 40
0.2
  1
5.250
 41
0.925696
 72
     5
 11
24.2955
 21
16.8205
 31
0.0
100
AcDbText
  0
POLYLINE
  5
310
100
AcDbEntity
  8
LAYER3
  6
CONTINUOUS
 62
   250
100
AcDb3dPolyline
 66
     1
 10
0.0
 20
0.0
 30
0.0
 70
     8
  0
VERTEX
  5
311
100
AcDbEntity
  8
LAYER3
  6
CONTINUOUS
 62
   250
100
AcDbVertex
100
AcDb3dPolylineVertex
 10
25.2532
 20
10.9054
 30
0.0
 70
    32
  0
VERTEX
  5
312
100
AcDbEntity
  8
LAYER3
  6
CONTINUOUS
 62
   250
100
AcDbVertex
100
AcDb3dPolylineVertex
 10
27.7287
 20
10.9054
 30
0.0
 70
    32
  0
SEQEND
  5
313
100
AcDbEntity
  8
LAYER3
 62
   250
  0
POLYLINE
  5
314
100
AcDbEntity
  8
LAYER3
  6
CONTINUOUS
 62
   250
100
AcDb3dPolyline
 66
     1
 10
0.0
 20
0.0
 30
0.0
 70
     8
  0
VERTEX
  5
315
100
AcDbEntity
  8
LAYER3
  6
CONTINUOUS
 62
   250
100
AcDbVertex
100
AcDb3dPolylineVertex
 10
25.2532
 20
16.0554
 30
0.0
 70
    32
  0
VERTEX
  5
316
100
AcDbEntity
  8
LAYER3
  6
CONTINUOUS
 62
   250
100
AcDbVertex
100
AcDb3dPolylineVertex
 10
27.7287
 20
16.0554
 30
0.0
 70
    32
  0
SEQEND
  5
317
100
AcDbEntity
  8
LAYER3
 62
   250
  0
POLYLINE
  5
318
100
AcDbEntity
  8
LAYER3
  6
PHANTOM
 62
   250
100
AcDb3dPolyline
 66
     1
 10
0.0
 20
0.0
 30
0.0
 70
     8
  0
VERTEX
  5
319
100
AcDbEntity
  8
LAYER3
  6
PHANTOM
 62
   250
100
AcDbVertex
100
AcDb3dPolylineVertex
 10
27.6287
 20
12.9304
 30
0.0
 70
    32
  0
VERTEX
  5
31A
100
AcDbEntity
  8
LAYER3
  6
PHANTOM
 62
   250
100
AcDbVertex
100
AcDb3dPolylineVertex
 10
27.6287
 20
10.9054
 30
0.0
 70
    32
  0
SEQEND
  5
31B
100
AcDbEntity
  8
LAYER3
 62
   250
  0
POLYLINE
  5
31C
100
AcDbEntity
  8
LAYER3
  6
PHANTOM
 62
   250
100
AcDb3dPolyline
 66
     1
 10
0.0
 20
0.0
 30
0.0
 70
     8
  0
VERTEX
  5
31D
100
AcDbEntity
  8
LAYER3
  6
PHANTOM
 62
   250
100
AcDbVertex
100
AcDb3dPolylineVertex
 10
27.6287
 20
14.0305
 30
0.0
 70
    32
  0
VERTEX
  5
31E
100
AcDbEntity
  8
LAYER3
  6
PHANTOM
 62
   250
100
AcDbVertex
100
AcDb3dPolylineVertex
 10
27.6287
 20
16.0554
 30
0.0
 70
    32
  0
SEQEND
  5
31F
100
AcDbEntity
  8
LAYER3
 62
   250
  0
TEXT
  5
320
100
AcDbEntity
  8
LAYER3
 62
   250
100
AcDbText
 10
27.7287
 20
13.1256
 30
0.0
 40
0.2
  1
5.150
 50
90.0
 41
1.013857
 72
     5
 11
27.7287
 21
13.8353
 31
0.0
100
AcDbText
  0
POLYLINE
  5
321
100
AcDbEntity
  8
LAYER3
  6
PHANTOM
 62
   250
100
AcDb3dPolyline
 66
     1
 10
0.0
 20
0.0
 30
0.0
 70
     8
  0
VERTEX
  5
322
100
AcDbEntity
  8
LAYER3
  6
PHANTOM
 62
   250
100
AcDbVertex
100
AcDb3dPolylineVertex
 10
25.9135
 20
10.0026
 30
0.0
 70
    32
  0
VERTEX
  5
323
100
AcDbEntity
  8
LAYER3
  6
PHANTOM
 62
   250
100
AcDbVertex
100
AcDb3dPolylineVertex
 10
25.1122
 20
10.8435
 30
0.0
 70
    32
  0
SEQEND
  5
324
100
AcDbEntity
  8
LAYER3
 62
   250
  0
POLYLINE
  5
325
100
AcDbEntity
  8
LAYER3
  6
CONTINUOUS
 62
   250
100
AcDb3dPolyline
 66
     1
 10
0.0
 20
0.0
 30
0.0
 70
     8
  0
VERTEX
  5
326
100
AcDbEntity
  8
LAYER3
  6
CONTINUOUS
 62
   250
100
AcDbVertex
100
AcDb3dPolylineVertex
 10
25.9135
 20
10.0026
 30
0.0
 70
    32
  0
VERTEX
  5
327
100
AcDbEntity
  8
LAYER3
  6
CONTINUOUS
 62
   250
100
AcDbVertex
100
AcDb3dPolylineVertex
 10
26.0864
 20
10.0026
 30
0.0
 70
    32
  0
SEQEND
  5
328
100
AcDbEntity
  8
LAYER3
 62
   250
  0
TEXT
  5
329
100
AcDbEntity
  8
LAYER3
 62
   250
100
AcDbText
 10
26.1864
 20
9.9026
 30
0.0
 40
0.2
  1
%%c0.171
 41
1.12404
 72
     5
 11
27.1231
 21
9.9026
 31
0.0
100
AcDbText
  0
POLYLINE
  5
32A
100
AcDbEntity
  8
LAYER3
  6
PHANTOM
 62
   250
100
AcDb3dPolyline
 66
     1
 10
0.0
 20
0.0
 30
0.0
 70
     8
  0
VERTEX
  5
32B
100
AcDbEntity
  8
LAYER3
  6
PHANTOM
 62
   250
100
AcDbVertex
100
AcDb3dPolylineVertex
 10
20.9285
 20
15.2901
 30
0.0
 70
    32
  0
VERTEX
  5
32C
100
AcDbEntity
  8
LAYER3
  6
PHANTOM
 62
   250
100
AcDbVertex
100
AcDb3dPolylineVertex
 10
21.2239
 20
14.7639
 30
0.0
 70
    32
  0
SEQEND
  5
32D
100
AcDbEntity
  8
LAYER3
 62
   250
  0
POLYLINE
  5
32E
100
AcDbEntity
  8
LAYER3
  6
CONTINUOUS
 62
   250
100
AcDb3dPolyline
 66
     1
 10
0.0
 20
0.0
 30
0.0
 70
     8
  0
VERTEX
  5
32F
100
AcDbEntity
  8
LAYER3
  6
CONTINUOUS
 62
   250
100
AcDbVertex
100
AcDb3dPolylineVertex
 10
20.9285
 20
15.2901
 30
0.0
 70
    32
  0
VERTEX
  5
330
100
AcDbEntity
  8
LAYER3
  6
CONTINUOUS
 62
   250
100
AcDbVertex
100
AcDb3dPolylineVertex
 10
20.4675
 20
15.2901
 30
0.0
 70
    32
  0
SEQEND
  5
331
100
AcDbEntity
  8
LAYER3
 62
   250
  0
TEXT
  5
332
100
AcDbEntity
  8
LAYER3
 62
   250
100
AcDbText
 10
19.4591
 20
15.1901
 30
0.0
 40
0.2
  1
R0.188
 41
1.009333
 72
     5
 11
20.3675
 21
15.1901
 31
0.0
100
AcDbText
  0
POLYLINE
  5
333
100
AcDbEntity
  8
LAYER3
  6
CONTINUOUS
 62
   250
100
AcDb3dPolyline
 66
     1
 10
0.0
 20
0.0
 30
0.0
 70
     8
  0
VERTEX
  5
334
100
AcDbEntity
  8
LAYER3
  6
CONTINUOUS
 62
   250
100
AcDbVertex
100
AcDb3dPolylineVertex
 10
21.1657
 20
14.4129
 30
0.0
 70
    32
  0
VERTEX
  5
335
100
AcDbEntity
  8
LAYER3
  6
CONTINUOUS
 62
   250
100
AcDbVertex
100
AcDb3dPolylineVertex
 10
20.4827
 20
14.4129
 30
0.0
 70
    32
  0
SEQEND
  5
336
100
AcDbEntity
  8
LAYER3
 62
   250
  0
POLYLINE
  5
337
100
AcDbEntity
  8
LAYER3
  6
CONTINUOUS
 62
   250
100
AcDb3dPolyline
 66
     1
 10
0.0
 20
0.0
 30
0.0
 70
     8
  0
VERTEX
  5
338
100
AcDbEntity
  8
LAYER3
  6
CONTINUOUS
 62
   250
100
AcDbVertex
100
AcDb3dPolylineVertex
 10
21.1657
 20
14.7879
 30
0.0
 70
    32
  0
VERTEX
  5
339
100
AcDbEntity
  8
LAYER3
  6
CONTINUOUS
 62
   250
100
AcDbVertex
100
AcDb3dPolylineVertex
 10
20.4827
 20
14.7879
 30
0.0
 70
    32
  0
SEQEND
  5
33A
100
AcDbEntity
  8
LAYER3
 62
   250
  0
POLYLINE
  5
33B
100
AcDbEntity
  8
LAYER3
  6
PHANTOM
 62
   250
100
AcDb3dPolyline
 66
     1
 10
0.0
 20
0.0
 30
0.0
 70
     8
  0
VERTEX
  5
33C
100
AcDbEntity
  8
LAYER3
  6
PHANTOM
 62
   250
100
AcDbVertex
100
AcDb3dPolylineVertex
 10
20.5827
 20
14.6004
 30
0.0
 70
    32
  0
VERTEX
  5
33D
100
AcDbEntity
  8
LAYER3
  6
PHANTOM
 62
   250
100
AcDbVertex
100
AcDb3dPolylineVertex
 10
20.5827
 20
14.4129
 30
0.0
 70
    32
  0
SEQEND
  5
33E
100
AcDbEntity
  8
LAYER3
 62
   250
  0
POLYLINE
  5
33F
100
AcDbEntity
  8
LAYER3
  6
PHANTOM
 62
   250
100
AcDb3dPolyline
 66
     1
 10
0.0
 20
0.0
 30
0.0
 70
     8
  0
VERTEX
  5
340
100
AcDbEntity
  8
LAYER3
  6
PHANTOM
 62
   250
100
AcDbVertex
100
AcDb3dPolylineVertex
 10
20.5827
 20
14.6004
 30
0.0
 70
    32
  0
VERTEX
  5
341
100
AcDbEntity
  8
LAYER3
  6
PHANTOM
 62
   250
100
AcDbVertex
100
AcDb3dPolylineVertex
 10
20.5827
 20
14.7879
 30
0.0
 70
    32
  0
SEQEND
  5
342
100
AcDbEntity
  8
LAYER3
 62
   250
  0
TEXT
  5
343
100
AcDbEntity
  8
LAYER3
 62
   250
100
AcDbText
 10
20.6827
 20
13.5032
 30
0.0
 40
0.2
  1
0.375
 50
90.0
 41
0.925696
 72
     5
 11
20.6827
 21
14.2129
 31
0.0
100
AcDbText
  0
POLYLINE
  5
344
100
AcDbEntity
  8
LAYER3
  6
CONTINUOUS
 62
   250
100
AcDb3dPolyline
 66
     1
 10
0.0
 20
0.0
 30
0.0
 70
     8
  0
VERTEX
  5
345
100
AcDbEntity
  8
LAYER3
  6
CONTINUOUS
 62
   250
100
AcDbVertex
100
AcDb3dPolylineVertex
 10
21.3707
 20
11.3239
 30
0.0
 70
    32
  0
VERTEX
  5
346
100
AcDbEntity
  8
LAYER3
  6
CONTINUOUS
 62
   250
100
AcDbVertex
100
AcDb3dPolylineVertex
 10
21.3707
 20
10.2681
 30
0.0
 70
    32
  0
SEQEND
  5
347
100
AcDbEntity
  8
LAYER3
 62
   250
  0
POLYLINE
  5
348
100
AcDbEntity
  8
LAYER3
  6
CONTINUOUS
 62
   250
100
AcDb3dPolyline
 66
     1
 10
0.0
 20
0.0
 30
0.0
 70
     8
  0
VERTEX
  5
349
100
AcDbEntity
  8
LAYER3
  6
CONTINUOUS
 62
   250
100
AcDbVertex
100
AcDb3dPolylineVertex
 10
26.5107
 20
11.3239
 30
0.0
 70
    32
  0
VERTEX
  5
34A
100
AcDbEntity
  8
LAYER3
  6
CONTINUOUS
 62
   250
100
AcDbVertex
100
AcDb3dPolylineVertex
 10
26.5107
 20
10.2681
 30
0.0
 70
    32
  0
SEQEND
  5
34B
100
AcDbEntity
  8
LAYER3
 62
   250
  0
POLYLINE
  5
34C
100
AcDbEntity
  8
LAYER3
  6
PHANTOM
 62
   250
100
AcDb3dPolyline
 66
     1
 10
0.0
 20
0.0
 30
0.0
 70
     8
  0
VERTEX
  5
34D
100
AcDbEntity
  8
LAYER3
  6
PHANTOM
 62
   250
100
AcDbVertex
100
AcDb3dPolylineVertex
 10
23.382
 20
10.3681
 30
0.0
 70
    32
  0
VERTEX
  5
34E
100
AcDbEntity
  8
LAYER3
  6
PHANTOM
 62
   250
100
AcDbVertex
100
AcDb3dPolylineVertex
 10
21.3707
 20
10.3681
 30
0.0
 70
    32
  0
SEQEND
  5
34F
100
AcDbEntity
  8
LAYER3
 62
   250
  0
POLYLINE
  5
350
100
AcDbEntity
  8
LAYER3
  6
PHANTOM
 62
   250
100
AcDb3dPolyline
 66
     1
 10
0.0
 20
0.0
 30
0.0
 70
     8
  0
VERTEX
  5
351
100
AcDbEntity
  8
LAYER3
  6
PHANTOM
 62
   250
100
AcDbVertex
100
AcDb3dPolylineVertex
 10
24.4993
 20
10.3681
 30
0.0
 70
    32
  0
VERTEX
  5
352
100
AcDbEntity
  8
LAYER3
  6
PHANTOM
 62
   250
100
AcDbVertex
100
AcDb3dPolylineVertex
 10
26.5107
 20
10.3681
 30
0.0
 70
    32
  0
SEQEND
  5
353
100
AcDbEntity
  8
LAYER3
 62
   250
  0
TEXT
  5
354
100
AcDbEntity
  8
LAYER3
 62
   250
100
AcDbText
 10
23.5858
 20
10.2681
 30
0.0
 40
0.2
  1
5.140
 41
1.013857
 72
     5
 11
24.2955
 21
10.2681
 31
0.0
100
AcDbText
  0
POLYLINE
  5
355
100
AcDbEntity
  8
LAYER3
  6
CONTINUOUS
 62
   250
100
AcDb3dPolyline
 66
     1
 10
0.0
 20
0.0
 30
0.0
 70
     8
  0
VERTEX
  5
356
100
AcDbEntity
  8
LAYER3
  6
CONTINUOUS
 62
   250
100
AcDbVertex
100
AcDb3dPolylineVertex
 10
25.9097
 20
10.7779
 30
0.0
 70
    32
  0
VERTEX
  5
357
100
AcDbEntity
  8
LAYER3
  6
CONTINUOUS
 62
   250
100
AcDbVertex
100
AcDb3dPolylineVertex
 10
28.177
 20
10.7779
 30
0.0
 70
    32
  0
SEQEND
  5
358
100
AcDbEntity
  8
LAYER3
 62
   250
  0
POLYLINE
  5
359
100
AcDbEntity
  8
LAYER3
  6
CONTINUOUS
 62
   250
100
AcDb3dPolyline
 66
     1
 10
0.0
 20
0.0
 30
0.0
 70
     8
  0
VERTEX
  5
35A
100
AcDbEntity
  8
LAYER3
  6
CONTINUOUS
 62
   250
100
AcDbVertex
100
AcDb3dPolylineVertex
 10
25.9097
 20
16.1829
 30
0.0
 70
    32
  0
VERTEX
  5
35B
100
AcDbEntity
  8
LAYER3
  6
CONTINUOUS
 62
   250
100
AcDbVertex
100
AcDb3dPolylineVertex
 10
28.177
 20
16.1829
 30
0.0
 70
    32
  0
SEQEND
  5
35C
100
AcDbEntity
  8
LAYER3
 62
   250
  0
POLYLINE
  5
35D
100
AcDbEntity
  8
LAYER3
  6
PHANTOM
 62
   250
100
AcDb3dPolyline
 66
     1
 10
0.0
 20
0.0
 30
0.0
 70
     8
  0
VERTEX
  5
35E
100
AcDbEntity
  8
LAYER3
  6
PHANTOM
 62
   250
100
AcDbVertex
100
AcDb3dPolylineVertex
 10
28.077
 20
12.9228
 30
0.0
 70
    32
  0
VERTEX
  5
35F
100
AcDbEntity
  8
LAYER3
  6
PHANTOM
 62
   250
100
AcDbVertex
100
AcDb3dPolylineVertex
 10
28.077
 20
10.7779
 30
0.0
 70
    32
  0
SEQEND
  5
360
100
AcDbEntity
  8
LAYER3
 62
   250
  0
POLYLINE
  5
361
100
AcDbEntity
  8
LAYER3
  6
PHANTOM
 62
   250
100
AcDb3dPolyline
 66
     1
 10
0.0
 20
0.0
 30
0.0
 70
     8
  0
VERTEX
  5
362
100
AcDbEntity
  8
LAYER3
  6
PHANTOM
 62
   250
100
AcDbVertex
100
AcDb3dPolylineVertex
 10
28.077
 20
14.0381
 30
0.0
 70
    32
  0
VERTEX
  5
363
100
AcDbEntity
  8
LAYER3
  6
PHANTOM
 62
   250
100
AcDbVertex
100
AcDb3dPolylineVertex
 10
28.077
 20
16.1829
 30
0.0
 70
    32
  0
SEQEND
  5
364
100
AcDbEntity
  8
LAYER3
 62
   250
  0
TEXT
  5
365
100
AcDbEntity
  8
LAYER3
 62
   250
100
AcDbText
 10
28.177
 20
13.1256
 30
0.0
 40
0.2
  1
5.405
 50
90.0
 41
0.925696
 72
     5
 11
28.177
 21
13.8353
 31
0.0
100
AcDbText
  0
POLYLINE
  5
366
100
AcDbEntity
  8
LAYER1
  6
CONTINUOUS
 62
   250
100
AcDb3dPolyline
 66
     1
 10
0.0
 20
0.0
 30
0.0
 70
     8
  0
VERTEX
  5
367
100
AcDbEntity
  8
LAYER1
  6
CONTINUOUS
 62
   250
100
AcDbVertex
100
AcDb3dPolylineVertex
 10
23.3906
 20
16.5371
 30
0.0
 70
    32
  0
VERTEX
  5
368
100
AcDbEntity
  8
LAYER1
  6
CONTINUOUS
 62
   250
100
AcDbVertex
100
AcDb3dPolylineVertex
 10
22.8282
 20
16.5371
 30
0.0
 70
    32
  0
SEQEND
  5
369
100
AcDbEntity
  8
LAYER1
 62
   250
  0
POLYLINE
  5
36A
100
AcDbEntity
  8
LAYER1
  6
CONTINUOUS
 62
   250
100
AcDb3dPolyline
 66
     1
 10
0.0
 20
0.0
 30
0.0
 70
     8
  0
VERTEX
  5
36B
100
AcDbEntity
  8
LAYER1
  6
CONTINUOUS
 62
   250
100
AcDbVertex
100
AcDb3dPolylineVertex
 10
22.9282
 20
16.5171
 30
0.0
 70
    32
  0
VERTEX
  5
36C
100
AcDbEntity
  8
LAYER1
  6
CONTINUOUS
 62
   250
100
AcDbVertex
100
AcDb3dPolylineVertex
 10
22.8282
 20
16.5371
 30
0.0
 70
    32
  0
VERTEX
  5
36D
100
AcDbEntity
  8
LAYER1
  6
CONTINUOUS
 62
   250
100
AcDbVertex
100
AcDb3dPolylineVertex
 10
22.9282
 20
16.5571
 30
0.0
 70
    32
  0
VERTEX
  5
36E
100
AcDbEntity
  8
LAYER1
  6
CONTINUOUS
 62
   250
100
AcDbVertex
100
AcDb3dPolylineVertex
 10
22.9282
 20
16.5171
 30
0.0
 70
    32
  0
SEQEND
  5
36F
100
AcDbEntity
  8
LAYER1
 62
   250
  0
POLYLINE
  5
370
100
AcDbEntity
  8
LAYER1
  6
CONTINUOUS
 62
   250
100
AcDb3dPolyline
 66
     1
 10
0.0
 20
0.0
 30
0.0
 70
     8
  0
VERTEX
  5
371
100
AcDbEntity
  8
LAYER1
  6
CONTINUOUS
 62
   250
100
AcDbVertex
100
AcDb3dPolylineVertex
 10
24.4907
 20
16.5371
 30
0.0
 70
    32
  0
VERTEX
  5
372
100
AcDbEntity
  8
LAYER1
  6
CONTINUOUS
 62
   250
100
AcDbVertex
100
AcDb3dPolylineVertex
 10
25.0532
 20
16.5371
 30
0.0
 70
    32
  0
SEQEND
  5
373
100
AcDbEntity
  8
LAYER1
 62
   250
  0
POLYLINE
  5
374
100
AcDbEntity
  8
LAYER1
  6
CONTINUOUS
 62
   250
100
AcDb3dPolyline
 66
     1
 10
0.0
 20
0.0
 30
0.0
 70
     8
  0
VERTEX
  5
375
100
AcDbEntity
  8
LAYER1
  6
CONTINUOUS
 62
   250
100
AcDbVertex
100
AcDb3dPolylineVertex
 10
24.9532
 20
16.5571
 30
0.0
 70
    32
  0
VERTEX
  5
376
100
AcDbEntity
  8
LAYER1
  6
CONTINUOUS
 62
   250
100
AcDbVertex
100
AcDb3dPolylineVertex
 10
25.0532
 20
16.5371
 30
0.0
 70
    32
  0
VERTEX
  5
377
100
AcDbEntity
  8
LAYER1
  6
CONTINUOUS
 62
   250
100
AcDbVertex
100
AcDb3dPolylineVertex
 10
24.9532
 20
16.5171
 30
0.0
 70
    32
  0
VERTEX
  5
378
100
AcDbEntity
  8
LAYER1
  6
CONTINUOUS
 62
   250
100
AcDbVertex
100
AcDb3dPolylineVertex
 10
24.9532
 20
16.5571
 30
0.0
 70
    32
  0
SEQEND
  5
379
100
AcDbEntity
  8
LAYER1
 62
   250
  0
POLYLINE
  5
37A
100
AcDbEntity
  8
LAYER1
  6
CONTINUOUS
 62
   250
100
AcDb3dPolyline
 66
     1
 10
0.0
 20
0.0
 30
0.0
 70
     8
  0
VERTEX
  5
37B
100
AcDbEntity
  8
LAYER1
  6
CONTINUOUS
 62
   250
100
AcDbVertex
100
AcDb3dPolylineVertex
 10
23.3906
 20
16.9205
 30
0.0
 70
    32
  0
VERTEX
  5
37C
100
AcDbEntity
  8
LAYER1
  6
CONTINUOUS
 62
   250
100
AcDbVertex
100
AcDb3dPolylineVertex
 10
21.3157
 20
16.9205
 30
0.0
 70
    32
  0
SEQEND
  5
37D
100
AcDbEntity
  8
LAYER1
 62
   250
  0
POLYLINE
  5
37E
100
AcDbEntity
  8
LAYER1
  6
CONTINUOUS
 62
   250
100
AcDb3dPolyline
 66
     1
 10
0.0
 20
0.0
 30
0.0
 70
     8
  0
VERTEX
  5
37F
100
AcDbEntity
  8
LAYER1
  6
CONTINUOUS
 62
   250
100
AcDbVertex
100
AcDb3dPolylineVertex
 10
21.4157
 20
16.9005
 30
0.0
 70
    32
  0
VERTEX
  5
380
100
AcDbEntity
  8
LAYER1
  6
CONTINUOUS
 62
   250
100
AcDbVertex
100
AcDb3dPolylineVertex
 10
21.3157
 20
16.9205
 30
0.0
 70
    32
  0
VERTEX
  5
381
100
AcDbEntity
  8
LAYER1
  6
CONTINUOUS
 62
   250
100
AcDbVertex
100
AcDb3dPolylineVertex
 10
21.4157
 20
16.9405
 30
0.0
 70
    32
  0
VERTEX
  5
382
100
AcDbEntity
  8
LAYER1
  6
CONTINUOUS
 62
   250
100
AcDbVertex
100
AcDb3dPolylineVertex
 10
21.4157
 20
16.9005
 30
0.0
 70
    32
  0
SEQEND
  5
383
100
AcDbEntity
  8
LAYER1
 62
   250
  0
POLYLINE
  5
384
100
AcDbEntity
  8
LAYER1
  6
CONTINUOUS
 62
   250
100
AcDb3dPolyline
 66
     1
 10
0.0
 20
0.0
 30
0.0
 70
     8
  0
VERTEX
  5
385
100
AcDbEntity
  8
LAYER1
  6
CONTINUOUS
 62
   250
100
AcDbVertex
100
AcDb3dPolylineVertex
 10
24.4907
 20
16.9205
 30
0.0
 70
    32
  0
VERTEX
  5
386
100
AcDbEntity
  8
LAYER1
  6
CONTINUOUS
 62
   250
100
AcDbVertex
100
AcDb3dPolylineVertex
 10
26.5657
 20
16.9205
 30
0.0
 70
    32
  0
SEQEND
  5
387
100
AcDbEntity
  8
LAYER1
 62
   250
  0
POLYLINE
  5
388
100
AcDbEntity
  8
LAYER1
  6
CONTINUOUS
 62
   250
100
AcDb3dPolyline
 66
     1
 10
0.0
 20
0.0
 30
0.0
 70
     8
  0
VERTEX
  5
389
100
AcDbEntity
  8
LAYER1
  6
CONTINUOUS
 62
   250
100
AcDbVertex
100
AcDb3dPolylineVertex
 10
26.4657
 20
16.9405
 30
0.0
 70
    32
  0
VERTEX
  5
38A
100
AcDbEntity
  8
LAYER1
  6
CONTINUOUS
 62
   250
100
AcDbVertex
100
AcDb3dPolylineVertex
 10
26.5657
 20
16.9205
 30
0.0
 70
    32
  0
VERTEX
  5
38B
100
AcDbEntity
  8
LAYER1
  6
CONTINUOUS
 62
   250
100
AcDbVertex
100
AcDb3dPolylineVertex
 10
26.4657
 20
16.9005
 30
0.0
 70
    32
  0
VERTEX
  5
38C
100
AcDbEntity
  8
LAYER1
  6
CONTINUOUS
 62
   250
100
AcDbVertex
100
AcDb3dPolylineVertex
 10
26.4657
 20
16.9405
 30
0.0
 70
    32
  0
SEQEND
  5
38D
100
AcDbEntity
  8
LAYER1
 62
   250
  0
POLYLINE
  5
38E
100
AcDbEntity
  8
LAYER1
  6
CONTINUOUS
 62
   250
100
AcDb3dPolyline
 66
     1
 10
0.0
 20
0.0
 30
0.0
 70
     8
  0
VERTEX
  5
38F
100
AcDbEntity
  8
LAYER1
  6
CONTINUOUS
 62
   250
100
AcDbVertex
100
AcDb3dPolylineVertex
 10
27.6287
 20
12.9304
 30
0.0
 70
    32
  0
VERTEX
  5
390
100
AcDbEntity
  8
LAYER1
  6
CONTINUOUS
 62
   250
100
AcDbVertex
100
AcDb3dPolylineVertex
 10
27.6287
 20
10.9054
 30
0.0
 70
    32
  0
SEQEND
  5
391
100
AcDbEntity
  8
LAYER1
 62
   250
  0
POLYLINE
  5
392
100
AcDbEntity
  8
LAYER1
  6
CONTINUOUS
 62
   250
100
AcDb3dPolyline
 66
     1
 10
0.0
 20
0.0
 30
0.0
 70
     8
  0
VERTEX
  5
393
100
AcDbEntity
  8
LAYER1
  6
CONTINUOUS
 62
   250
100
AcDbVertex
100
AcDb3dPolylineVertex
 10
27.6487
 20
11.0054
 30
0.0
 70
    32
  0
VERTEX
  5
394
100
AcDbEntity
  8
LAYER1
  6
CONTINUOUS
 62
   250
100
AcDbVertex
100
AcDb3dPolylineVertex
 10
27.6287
 20
10.9054
 30
0.0
 70
    32
  0
VERTEX
  5
395
100
AcDbEntity
  8
LAYER1
  6
CONTINUOUS
 62
   250
100
AcDbVertex
100
AcDb3dPolylineVertex
 10
27.6087
 20
11.0054
 30
0.0
 70
    32
  0
VERTEX
  5
396
100
AcDbEntity
  8
LAYER1
  6
CONTINUOUS
 62
   250
100
AcDbVertex
100
AcDb3dPolylineVertex
 10
27.6487
 20
11.0054
 30
0.0
 70
    32
  0
SEQEND
  5
397
100
AcDbEntity
  8
LAYER1
 62
   250
  0
POLYLINE
  5
398
100
AcDbEntity
  8
LAYER1
  6
CONTINUOUS
 62
   250
100
AcDb3dPolyline
 66
     1
 10
0.0
 20
0.0
 30
0.0
 70
     8
  0
VERTEX
  5
399
100
AcDbEntity
  8
LAYER1
  6
CONTINUOUS
 62
   250
100
AcDbVertex
100
AcDb3dPolylineVertex
 10
27.6287
 20
14.0305
 30
0.0
 70
    32
  0
VERTEX
  5
39A
100
AcDbEntity
  8
LAYER1
  6
CONTINUOUS
 62
   250
100
AcDbVertex
100
AcDb3dPolylineVertex
 10
27.6287
 20
16.0554
 30
0.0
 70
    32
  0
SEQEND
  5
39B
100
AcDbEntity
  8
LAYER1
 62
   250
  0
POLYLINE
  5
39C
100
AcDbEntity
  8
LAYER1
  6
CONTINUOUS
 62
   250
100
AcDb3dPolyline
 66
     1
 10
0.0
 20
0.0
 30
0.0
 70
     8
  0
VERTEX
  5
39D
100
AcDbEntity
  8
LAYER1
  6
CONTINUOUS
 62
   250
100
AcDbVertex
100
AcDb3dPolylineVertex
 10
27.6087
 20
15.9554
 30
0.0
 70
    32
  0
VERTEX
  5
39E
100
AcDbEntity
  8
LAYER1
  6
CONTINUOUS
 62
   250
100
AcDbVertex
100
AcDb3dPolylineVertex
 10
27.6287
 20
16.0554
 30
0.0
 70
    32
  0
VERTEX
  5
39F
100
AcDbEntity
  8
LAYER1
  6
CONTINUOUS
 62
   250
100
AcDbVertex
100
AcDb3dPolylineVertex
 10
27.6487
 20
15.9554
 30
0.0
 70
    32
  0
VERTEX
  5
3A0
100
AcDbEntity
  8
LAYER1
  6
CONTINUOUS
 62
   250
100
AcDbVertex
100
AcDb3dPolylineVertex
 10
27.6087
 20
15.9554
 30
0.0
 70
    32
  0
SEQEND
  5
3A1
100
AcDbEntity
  8
LAYER1
 62
   250
  0
POLYLINE
  5
3A2
100
AcDbEntity
  8
LAYER1
  6
CONTINUOUS
 62
   250
100
AcDb3dPolyline
 66
     1
 10
0.0
 20
0.0
 30
0.0
 70
     8
  0
VERTEX
  5
3A3
100
AcDbEntity
  8
LAYER1
  6
CONTINUOUS
 62
   250
100
AcDbVertex
100
AcDb3dPolylineVertex
 10
25.9135
 20
10.0026
 30
0.0
 70
    32
  0
VERTEX
  5
3A4
100
AcDbEntity
  8
LAYER1
  6
CONTINUOUS
 62
   250
100
AcDbVertex
100
AcDb3dPolylineVertex
 10
25.1122
 20
10.8435
 30
0.0
 70
    32
  0
SEQEND
  5
3A5
100
AcDbEntity
  8
LAYER1
 62
   250
  0
POLYLINE
  5
3A6
100
AcDbEntity
  8
LAYER1
  6
CONTINUOUS
 62
   250
100
AcDb3dPolyline
 66
     1
 10
0.0
 20
0.0
 30
0.0
 70
     8
  0
VERTEX
  5
3A7
100
AcDbEntity
  8
LAYER1
  6
CONTINUOUS
 62
   250
100
AcDbVertex
100
AcDb3dPolylineVertex
 10
25.1667
 20
10.7573
 30
0.0
 70
    32
  0
VERTEX
  5
3A8
100
AcDbEntity
  8
LAYER1
  6
CONTINUOUS
 62
   250
100
AcDbVertex
100
AcDb3dPolylineVertex
 10
25.1122
 20
10.8435
 30
0.0
 70
    32
  0
VERTEX
  5
3A9
100
AcDbEntity
  8
LAYER1
  6
CONTINUOUS
 62
   250
100
AcDbVertex
100
AcDb3dPolylineVertex
 10
25.1956
 20
10.7849
 30
0.0
 70
    32
  0
VERTEX
  5
3AA
100
AcDbEntity
  8
LAYER1
  6
CONTINUOUS
 62
   250
100
AcDbVertex
100
AcDb3dPolylineVertex
 10
25.1667
 20
10.7573
 30
0.0
 70
    32
  0
SEQEND
  5
3AB
100
AcDbEntity
  8
LAYER1
 62
   250
  0
POLYLINE
  5
3AC
100
AcDbEntity
  8
LAYER1
  6
CONTINUOUS
 62
   250
100
AcDb3dPolyline
 66
     1
 10
0.0
 20
0.0
 30
0.0
 70
     8
  0
VERTEX
  5
3AD
100
AcDbEntity
  8
LAYER1
  6
CONTINUOUS
 62
   250
100
AcDbVertex
100
AcDb3dPolylineVertex
 10
20.9285
 20
15.2901
 30
0.0
 70
    32
  0
VERTEX
  5
3AE
100
AcDbEntity
  8
LAYER1
  6
CONTINUOUS
 62
   250
100
AcDbVertex
100
AcDb3dPolylineVertex
 10
21.2239
 20
14.7639
 30
0.0
 70
    32
  0
SEQEND
  5
3AF
100
AcDbEntity
  8
LAYER1
 62
   250
  0
POLYLINE
  5
3B0
100
AcDbEntity
  8
LAYER1
  6
CONTINUOUS
 62
   250
100
AcDb3dPolyline
 66
     1
 10
0.0
 20
0.0
 30
0.0
 70
     8
  0
VERTEX
  5
3B1
100
AcDbEntity
  8
LAYER1
  6
CONTINUOUS
 62
   250
100
AcDbVertex
100
AcDb3dPolylineVertex
 10
21.1924
 20
14.8609
 30
0.0
 70
    32
  0
VERTEX
  5
3B2
100
AcDbEntity
  8
LAYER1
  6
CONTINUOUS
 62
   250
100
AcDbVertex
100
AcDb3dPolylineVertex
 10
21.2239
 20
14.7639
 30
0.0
 70
    32
  0
VERTEX
  5
3B3
100
AcDbEntity
  8
LAYER1
  6
CONTINUOUS
 62
   250
100
AcDbVertex
100
AcDb3dPolylineVertex
 10
21.1575
 20
14.8413
 30
0.0
 70
    32
  0
VERTEX
  5
3B4
100
AcDbEntity
  8
LAYER1
  6
CONTINUOUS
 62
   250
100
AcDbVertex
100
AcDb3dPolylineVertex
 10
21.1924
 20
14.8609
 30
0.0
 70
    32
  0
SEQEND
  5
3B5
100
AcDbEntity
  8
LAYER1
 62
   250
  0
POLYLINE
  5
3B6
100
AcDbEntity
  8
LAYER1
  6
CONTINUOUS
 62
   250
100
AcDb3dPolyline
 66
     1
 10
0.0
 20
0.0
 30
0.0
 70
     8
  0
VERTEX
  5
3B7
100
AcDbEntity
  8
LAYER1
  6
CONTINUOUS
 62
   250
100
AcDbVertex
100
AcDb3dPolylineVertex
 10
20.5827
 20
14.6004
 30
0.0
 70
    32
  0
VERTEX
  5
3B8
100
AcDbEntity
  8
LAYER1
  6
CONTINUOUS
 62
   250
100
AcDbVertex
100
AcDb3dPolylineVertex
 10
20.5827
 20
14.4129
 30
0.0
 70
    32
  0
SEQEND
  5
3B9
100
AcDbEntity
  8
LAYER1
 62
   250
  0
POLYLINE
  5
3BA
100
AcDbEntity
  8
LAYER1
  6
CONTINUOUS
 62
   250
100
AcDb3dPolyline
 66
     1
 10
0.0
 20
0.0
 30
0.0
 70
     8
  0
VERTEX
  5
3BB
100
AcDbEntity
  8
LAYER1
  6
CONTINUOUS
 62
   250
100
AcDbVertex
100
AcDb3dPolylineVertex
 10
20.6027
 20
14.5129
 30
0.0
 70
    32
  0
VERTEX
  5
3BC
100
AcDbEntity
  8
LAYER1
  6
CONTINUOUS
 62
   250
100
AcDbVertex
100
AcDb3dPolylineVertex
 10
20.5827
 20
14.4129
 30
0.0
 70
    32
  0
VERTEX
  5
3BD
100
AcDbEntity
  8
LAYER1
  6
CONTINUOUS
 62
   250
100
AcDbVertex
100
AcDb3dPolylineVertex
 10
20.5627
 20
14.5129
 30
0.0
 70
    32
  0
VERTEX
  5
3BE
100
AcDbEntity
  8
LAYER1
  6
CONTINUOUS
 62
   250
100
AcDbVertex
100
AcDb3dPolylineVertex
 10
20.6027
 20
14.5129
 30
0.0
 70
    32
  0
SEQEND
  5
3BF
100
AcDbEntity
  8
LAYER1
 62
   250
  0
POLYLINE
  5
3C0
100
AcDbEntity
  8
LAYER1
  6
CONTINUOUS
 62
   250
100
AcDb3dPolyline
 66
     1
 10
0.0
 20
0.0
 30
0.0
 70
     8
  0
VERTEX
  5
3C1
100
AcDbEntity
  8
LAYER1
  6
CONTINUOUS
 62
   250
100
AcDbVertex
100
AcDb3dPolylineVertex
 10
20.5827
 20
14.6004
 30
0.0
 70
    32
  0
VERTEX
  5
3C2
100
AcDbEntity
  8
LAYER1
  6
CONTINUOUS
 62
   250
100
AcDbVertex
100
AcDb3dPolylineVertex
 10
20.5827
 20
14.7879
 30
0.0
 70
    32
  0
SEQEND
  5
3C3
100
AcDbEntity
  8
LAYER1
 62
   250
  0
POLYLINE
  5
3C4
100
AcDbEntity
  8
LAYER1
  6
CONTINUOUS
 62
   250
100
AcDb3dPolyline
 66
     1
 10
0.0
 20
0.0
 30
0.0
 70
     8
  0
VERTEX
  5
3C5
100
AcDbEntity
  8
LAYER1
  6
CONTINUOUS
 62
   250
100
AcDbVertex
100
AcDb3dPolylineVertex
 10
20.5627
 20
14.6879
 30
0.0
 70
    32
  0
VERTEX
  5
3C6
100
AcDbEntity
  8
LAYER1
  6
CONTINUOUS
 62
   250
100
AcDbVertex
100
AcDb3dPolylineVertex
 10
20.5827
 20
14.7879
 30
0.0
 70
    32
  0
VERTEX
  5
3C7
100
AcDbEntity
  8
LAYER1
  6
CONTINUOUS
 62
   250
100
AcDbVertex
100
AcDb3dPolylineVertex
 10
20.6027
 20
14.6879
 30
0.0
 70
    32
  0
VERTEX
  5
3C8
100
AcDbEntity
  8
LAYER1
  6
CONTINUOUS
 62
   250
100
AcDbVertex
100
AcDb3dPolylineVertex
 10
20.5627
 20
14.6879
 30
0.0
 70
    32
  0
SEQEND
  5
3C9
100
AcDbEntity
  8
LAYER1
 62
   250
  0
POLYLINE
  5
3CA
100
AcDbEntity
  8
LAYER1
  6
CONTINUOUS
 62
   250
100
AcDb3dPolyline
 66
     1
 10
0.0
 20
0.0
 30
0.0
 70
     8
  0
VERTEX
  5
3CB
100
AcDbEntity
  8
LAYER1
  6
CONTINUOUS
 62
   250
100
AcDbVertex
100
AcDb3dPolylineVertex
 10
23.382
 20
10.3681
 30
0.0
 70
    32
  0
VERTEX
  5
3CC
100
AcDbEntity
  8
LAYER1
  6
CONTINUOUS
 62
   250
100
AcDbVertex
100
AcDb3dPolylineVertex
 10
21.3707
 20
10.3681
 30
0.0
 70
    32
  0
SEQEND
  5
3CD
100
AcDbEntity
  8
LAYER1
 62
   250
  0
POLYLINE
  5
3CE
100
AcDbEntity
  8
LAYER1
  6
CONTINUOUS
 62
   250
100
AcDb3dPolyline
 66
     1
 10
0.0
 20
0.0
 30
0.0
 70
     8
  0
VERTEX
  5
3CF
100
AcDbEntity
  8
LAYER1
  6
CONTINUOUS
 62
   250
100
AcDbVertex
100
AcDb3dPolylineVertex
 10
21.4707
 20
10.3481
 30
0.0
 70
    32
  0
VERTEX
  5
3D0
100
AcDbEntity
  8
LAYER1
  6
CONTINUOUS
 62
   250
100
AcDbVertex
100
AcDb3dPolylineVertex
 10
21.3707
 20
10.3681
 30
0.0
 70
    32
  0
VERTEX
  5
3D1
100
AcDbEntity
  8
LAYER1
  6
CONTINUOUS
 62
   250
100
AcDbVertex
100
AcDb3dPolylineVertex
 10
21.4707
 20
10.3881
 30
0.0
 70
    32
  0
VERTEX
  5
3D2
100
AcDbEntity
  8
LAYER1
  6
CONTINUOUS
 62
   250
100
AcDbVertex
100
AcDb3dPolylineVertex
 10
21.4707
 20
10.3481
 30
0.0
 70
    32
  0
SEQEND
  5
3D3
100
AcDbEntity
  8
LAYER1
 62
   250
  0
POLYLINE
  5
3D4
100
AcDbEntity
  8
LAYER1
  6
CONTINUOUS
 62
   250
100
AcDb3dPolyline
 66
     1
 10
0.0
 20
0.0
 30
0.0
 70
     8
  0
VERTEX
  5
3D5
100
AcDbEntity
  8
LAYER1
  6
CONTINUOUS
 62
   250
100
AcDbVertex
100
AcDb3dPolylineVertex
 10
24.4993
 20
10.3681
 30
0.0
 70
    32
  0
VERTEX
  5
3D6
100
AcDbEntity
  8
LAYER1
  6
CONTINUOUS
 62
   250
100
AcDbVertex
100
AcDb3dPolylineVertex
 10
26.5107
 20
10.3681
 30
0.0
 70
    32
  0
SEQEND
  5
3D7
100
AcDbEntity
  8
LAYER1
 62
   250
  0
POLYLINE
  5
3D8
100
AcDbEntity
  8
LAYER1
  6
CONTINUOUS
 62
   250
100
AcDb3dPolyline
 66
     1
 10
0.0
 20
0.0
 30
0.0
 70
     8
  0
VERTEX
  5
3D9
100
AcDbEntity
  8
LAYER1
  6
CONTINUOUS
 62
   250
100
AcDbVertex
100
AcDb3dPolylineVertex
 10
26.4107
 20
10.3881
 30
0.0
 70
    32
  0
VERTEX
  5
3DA
100
AcDbEntity
  8
LAYER1
  6
CONTINUOUS
 62
   250
100
AcDbVertex
100
AcDb3dPolylineVertex
 10
26.5107
 20
10.3681
 30
0.0
 70
    32
  0
VERTEX
  5
3DB
100
AcDbEntity
  8
LAYER1
  6
CONTINUOUS
 62
   250
100
AcDbVertex
100
AcDb3dPolylineVertex
 10
26.4107
 20
10.3481
 30
0.0
 70
    32
  0
VERTEX
  5
3DC
100
AcDbEntity
  8
LAYER1
  6
CONTINUOUS
 62
   250
100
AcDbVertex
100
AcDb3dPolylineVertex
 10
26.4107
 20
10.3881
 30
0.0
 70
    32
  0
SEQEND
  5
3DD
100
AcDbEntity
  8
LAYER1
 62
   250
  0
POLYLINE
  5
3DE
100
AcDbEntity
  8
LAYER1
  6
CONTINUOUS
 62
   250
100
AcDb3dPolyline
 66
     1
 10
0.0
 20
0.0
 30
0.0
 70
     8
  0
VERTEX
  5
3DF
100
AcDbEntity
  8
LAYER1
  6
CONTINUOUS
 62
   250
100
AcDbVertex
100
AcDb3dPolylineVertex
 10
28.077
 20
12.9228
 30
0.0
 70
    32
  0
VERTEX
  5
3E0
100
AcDbEntity
  8
LAYER1
  6
CONTINUOUS
 62
   250
100
AcDbVertex
100
AcDb3dPolylineVertex
 10
28.077
 20
10.7779
 30
0.0
 70
    32
  0
SEQEND
  5
3E1
100
AcDbEntity
  8
LAYER1
 62
   250
  0
POLYLINE
  5
3E2
100
AcDbEntity
  8
LAYER1
  6
CONTINUOUS
 62
   250
100
AcDb3dPolyline
 66
     1
 10
0.0
 20
0.0
 30
0.0
 70
     8
  0
VERTEX
  5
3E3
100
AcDbEntity
  8
LAYER1
  6
CONTINUOUS
 62
   250
100
AcDbVertex
100
AcDb3dPolylineVertex
 10
28.097
 20
10.8779
 30
0.0
 70
    32
  0
VERTEX
  5
3E4
100
AcDbEntity
  8
LAYER1
  6
CONTINUOUS
 62
   250
100
AcDbVertex
100
AcDb3dPolylineVertex
 10
28.077
 20
10.7779
 30
0.0
 70
    32
  0
VERTEX
  5
3E5
100
AcDbEntity
  8
LAYER1
  6
CONTINUOUS
 62
   250
100
AcDbVertex
100
AcDb3dPolylineVertex
 10
28.057
 20
10.8779
 30
0.0
 70
    32
  0
VERTEX
  5
3E6
100
AcDbEntity
  8
LAYER1
  6
CONTINUOUS
 62
   250
100
AcDbVertex
100
AcDb3dPolylineVertex
 10
28.097
 20
10.8779
 30
0.0
 70
    32
  0
SEQEND
  5
3E7
100
AcDbEntity
  8
LAYER1
 62
   250
  0
POLYLINE
  5
3E8
100
AcDbEntity
  8
LAYER1
  6
CONTINUOUS
 62
   250
100
AcDb3dPolyline
 66
     1
 10
0.0
 20
0.0
 30
0.0
 70
     8
  0
VERTEX
  5
3E9
100
AcDbEntity
  8
LAYER1
  6
CONTINUOUS
 62
   250
100
AcDbVertex
100
AcDb3dPolylineVertex
 10
28.077
 20
14.0381
 30
0.0
 70
    32
  0
VERTEX
  5
3EA
100
AcDbEntity
  8
LAYER1
  6
CONTINUOUS
 62
   250
100
AcDbVertex
100
AcDb3dPolylineVertex
 10
28.077
 20
16.1829
 30
0.0
 70
    32
  0
SEQEND
  5
3EB
100
AcDbEntity
  8
LAYER1
 62
   250
  0
POLYLINE
  5
3EC
100
AcDbEntity
  8
LAYER1
  6
CONTINUOUS
 62
   250
100
AcDb3dPolyline
 66
     1
 10
0.0
 20
0.0
 30
0.0
 70
     8
  0
VERTEX
  5
3ED
100
AcDbEntity
  8
LAYER1
  6
CONTINUOUS
 62
   250
100
AcDbVertex
100
AcDb3dPolylineVertex
 10
28.057
 20
16.0829
 30
0.0
 70
    32
  0
VERTEX
  5
3EE
100
AcDbEntity
  8
LAYER1
  6
CONTINUOUS
 62
   250
100
AcDbVertex
100
AcDb3dPolylineVertex
 10
28.077
 20
16.1829
 30
0.0
 70
    32
  0
VERTEX
  5
3EF
100
AcDbEntity
  8
LAYER1
  6
CONTINUOUS
 62
   250
100
AcDbVertex
100
AcDb3dPolylineVertex
 10
28.097
 20
16.0829
 30
0.0
 70
    32
  0
VERTEX
  5
3F0
100
AcDbEntity
  8
LAYER1
  6
CONTINUOUS
 62
   250
100
AcDbVertex
100
AcDb3dPolylineVertex
 10
28.057
 20
16.0829
 30
0.0
 70
    32
  0
SEQEND
  5
3F1
100
AcDbEntity
  8
LAYER1
 62
   250
  0
ENDSEC
  0
SECTION
  2
OBJECTS
  0
DICTIONARY
  5
C
100
AcDbDictionary
  3
ACAD_GROUP
350
D
  3
ACAD_MLINESTYLE
350
1B
  0
DICTIONARY
  5
D
102
{ACAD_REACTORS
330
C
102
}
100
AcDbDictionary
  0
DICTIONARY
  5
1B
102
{ACAD_REACTORS
330
C
102
}
100
AcDbDictionary
  3
STANDARD
350
1C
  0
MLINESTYLE
  5
1C
102
{ACAD_REACTORS
330
1B
102
}
100
AcDbMlineStyle
  2
STANDARD
 70
     0
  3

 62
   256
 51
90.0
 52
90.0
 71
     2
 49
0.5
 62
   256
  6
BYLAYER
 49
-0.5
 62
   256
  6
BYLAYER
  0
ENDSEC
  0
EOF
